PrimaNota.ru - самый крупный в мире бесплатный архив песенных текстов, аккордов, табулатур и нот


Braid - Killing A Camera - текст песни, таба, видео

Регистрация Запомнить меня
Войти через:  Facebook Google Twitter Vk Yandex Mail.ru

Braid - Killing A Camera - текст песни, таба, видео

Печатать
Просмотров: 111
http://www.polyvinylrecords.com/artists/index.php?id=264

Gtr I (E A D G B E)

  Gtr I
  E E E E E E E E   E E E E E E E E
|-------2-2-2-2-2-|-2-2-2-2-2-2-2-2-|
|-------3-3-3-3-3-|-3-3-3-3-3-3-3-3-|
|-------0-0-0-0-0-|-0-0-0-0-0-0-0-0-|
|-5-5-------------|-----------------|
|-5-5-------------|-----------------|
|-3-3-------------|-----------------|

guitar one plays this while the other guitar messes around with some octaves
its not too hard to hear and it doesnt seem very strict

  E E E E E E E E   E E E E E E E E
|-----------------|-----------------|
|-----------------|-----------------|
|-6-6-6-6-6-6---6-|-6-6-6-6-6-6---6-|
|-7-7-7-7-7-7---7-|-7-7-7-7-7-7---7-|
|-----------------|-----------------|
|-5-5-5-5-5-5---5-|-5-5-5-5-5-5---5-|


  E E E E E E E E   E E E E E E E E
|-----------------|-----------------|
|-----------------|-----------------|
|-7-7-7-7-7-7---7-|-7-7-7-7-7-7-7S9-|
|-7-7-7-7-7-7---7-|-7-7-7-7-7-7-----|
|-----------------|-----------------|
|-7-7-7-7-7-7---7-|-7-7-7-7-7-7-----|


  E E E E E E E E   E E E E E E E E
|-----------------|-----------------|
|-----------------|-----------------|
|-6-6-6-6-6-6---6-|-6-6-6-6-6-6---6-|
|-7-7-7-7-7-7---7-|-7-7-7-7-7-7---7-|
|-----------------|-----------------|
|-5-5-5-5-5-5---5-|-5-5-5-5-5-5---5-|

these are the notes but you can rework the fingering for slides
  E E E E E E Q  E E E E E E Q
|---------0-2-0----------5-7-5--|
|-------3------------0-3--------|
|---2-4------------2------------|
|-------------------------------|
|-------------------------------|
|-3-----------------------------|


  E E E E E E E E   E E E E E E E E
|-----------------|--------------------|
|-----------------|--------------------|
|-9-9-9-9-9-9-9-9-|-9-9-9-9-9-9-9-9----|
|-9-9-9-9-9-9-9-9-|-9-9-9-9-9-9-9-9----|
|-7-7-7-7-7-7-7-7-|-7-7-7-7-7-7-7-7----|
|-----------------|--------------------|


  E E E E E E E E E E E E E E Q
|-4-0---4-0---5-0---4-0---5-0------|
|-----0-----0-----0-----0-----0----|
|----------------------------------|
|----------------------------------|
|----------------------------------|
|----------------------------------|


  E E E E H      E E E E H
|--------------|--------------|
|--------------|--------------|
|--------------|-2-2---2-2----|
|-4-4---4-4----|-2-2---2-2----|
|-4-4---4-4----|-0-0---0-0----|
|-2-2---2-2----|--------------|


Duration Legend
---------------
W - whole; H - half; Q - quarter; E - 8th; S - 16th; T - 32nd; X - 64th; a - acciaccatura
+ - note tied to previous; . - note dotted; .. - note double dotted
Uncapitalized letters represent notes that are staccato (1/2 duration)
Irregular groupings are notated above the duration line
Duration letters will always appear directly above the note/fret number it represents the
duration for.  Duration letters with no fret number below them represent rests.  Multi-
bar rests are notated in the form Wxn, where n is the number of bars to rest for.  Low
melody durations appear below the staff

Tablature Legend
----------------
 h   - hammer-on
 p   - pull-off
 b   - bend
 pb  - pre-bend
 r   - bend release (if no number after the r, then release immediately)
 /\  - slide into or out of (from/to "nowhere")
 s   - legato slide
 S   - shift slide
  - natural harmonic
[n]  - artificial harmonic
n(n) - tapped harmonic
 ~   - vibrato
 tr  - trill
 T   - tap
 TP  - trem. picking
 PM  - palm muting
\n/  - tremolo bar dip; n = amount to dip
 \n  - tremolo bar down
 n/  - tremolo bar up
/n\  - tremolo bar inverted dip
 =   - hold bend; also acts as connecting device for hammers/pulls
 <>  - volume swell (louder/softer)
 x   - on rhythm slash represents muted slash
 o   - on rhythm slash represents single note slash
Добавлено: 10.03.2012
Другие материалы по этой песне:

Страница создана 10.03.2012
http://primanota.ru/braid/killing-a-camera-chords.htm
Привет, Гость.
Предлагаем пройти революционный курс по гитаре.
Подарок от PrimaNota.Ru, забирай!