PrimaNota.ru - самый крупный в мире бесплатный архив песенных текстов, аккордов, табулатур и нот


Braid - I Keep A Diary - текст песни, таба, видео

Регистрация Запомнить меня
Войти через:  Facebook Google Twitter Vk Yandex Mail.ru

Braid - I Keep A Diary - текст песни, таба, видео

Печатать
Просмотров: 131
-----------------------------------------------------------------------------
                             I KEEP A DIARY - Braid
-----------------------------------------------------------------------------
This should give you a good idea of how to play it. There might be a few more 
variations of the verse lead I missed, but it uses the same few notes.

Intro:
e|-0-----0----------0------0-----------|
B|-3------3---------3-------3----------|
G|-4-------4--------4--------4---------|
D|-5--------5-------5---------5--------|
A|-----------5-----------------5-------|
E|-------------------------------------|


Verse:
e|---------------------------------------------------|
B|-------3---3----------------------3---3------------|
G|-------4---4----------------------4---4------------|
D|-------5---5----------------------5---5------------|
A|-------5---5----------------------5---5------------|
E|---------------------------------------------------|
 |                                                   |
e|---------------------------------------------------|
B|---------------------------------------------------|
G|-------7--------------------------7----------------|
D|-----5----9^--------------------5----9-------------|
A|-5/7------------5~~---------5/7----------5/7/5-----|
E|---------------------------------------------------|
  (gradually bend the 9 a half step up)
e|---------------------------------------------------|
B|------------------8--------------------------------|
G|-------7------9/7---9-------------7----------------|
D|-----5----9---------------------5----9-------------|
A|-5/7------------------------5/7----------5~~-------|
E|---------------------------------------------------|

e|---------------------------------------------------|
B|----------------8--------------------------8-------|
G|-------7-----/9---7~~-------------7-----/9---7~~---|
D|-----5----9---------------------5----9-------------|
A|-5/7------------------------5/7--------------------|
E|---------------------------------------------------|


Chorus: x4
e|-----0-----2-----2----------0--------------------------|
B|---3---3-----3---3--------3---3------------------------|
G|---------4-----4-0--------------4------5-5-5----5------|
D|-5----------------------5--------------5-5-5----5------|
A|-----------------------------------2h3-3-3-3----3------|
E|-------------------------------------------------------|
 |                                                       |
e|-------------------------------------------------------|
B|-------------------------------------------------------|
G|-12---12-12--------------------------------------------|
D|-12---12-12---12---12----12/10-10------10--------------|
A|-10---10-10---12---12----x--x--10------10--------------|
E|-10---10-10---10---10----10/8--8-------8---------------|


Noisy Interlude: (you can probably get by with playing this over verse lead)
e|-----------------------------------|
B|-----------------------------------|
G|-12---12--12-12--12---12--12-12----|
D|-12---12--12-12--12---12--12-12----|
A|-10---10--10-10--10---10--10-10----|
E|-----------------------------------|


Outro:
e|---------------|
B|-3---3---------|
G|-4---4---------|
D|-5---5---------|
A|-5---5---------|
E|-3---3---------|
Добавлено: 01.07.2013
Другие материалы по этой песне:
  • Аккорды и текст

Страница создана 13.03.2012
http://primanota.ru/braid/i-keep-a-diary-chords.htm
Привет, Гость.
Предлагаем пройти революционный курс по гитаре.
Подарок от PrimaNota.Ru, забирай!