PrimaNota.ru - самый крупный в мире бесплатный архив песенных текстов, аккордов, табулатур и нот


Брамс Иоганнес - Symphony No 3 3rd Movement - таба, видео

Регистрация Запомнить меня
Войти через:  Facebook Google Twitter Vk Yandex Mail.ru

Брамс Иоганнес - Symphony No 3 3rd Movement - таба, видео

Печатать
Просмотров: 100
-------------------------------------------------------------------------------------------------------------
                             Symphony No 3 3rd Movement - Johannes Brahms
-------------------------------------------------------------------------------------------------------------
(Simple Version)

Tuning: Standard

e|---------/--------0------------------------------3---1----------------------------------------------------|
B|-----0---/--1-----------3--0----------0---1-------------0---0----1--3----6--5--1--------------------------|
G|--2------/-----------------------2------------------------------------------------------------------------|
D|---------/------------------------------------------------------------------------------------------------|
A|---------/------------------------------------------------------------------------------------------------|
E|---------/(repeat starts here)----------------------------------------------------------------------------|

e|--0----------------------------------------------------3----1--------0----------------------0-----------/-|
B|------3---------0-----------------0----1----2----3--------------0----0----3--------1---0-------------0--/-|
G|---------2---------2--1----2------1----2----2-------------------0------------2------------------2-------/-|
D|--------------------------------------------------------------------------------------------------------/-|
A|--------------------------------------------------------------------------------------------------------/-|
E|---------------------------------------------------------------------------------(repeat two more times)/-|

e|---------------------------------------------------------------------------|
B|-------1----0--------------------------------------------------------------|
G|--2-----------------2------------------------------------------------------|
D|---------------------------------------------------------------------------|
A|---------------------------------------------------------------------------|
E|---------------------------------------------------------------------------|




************************************

| /   slide up
| \   slide down
| h   hammer-on
| p   pull-off
| ~   vibrato
| +   harmonic
| x   Mute note
| b   Bend
| pb  Pre-bend
| br  Bend release
| pbr Pre-bend release
| brb Bend release bend

************************************
Добавлено: 23.10.2015
Другие материалы по этой песне:

Страница создана 22.03.2012
http://primanota.ru/brahms-johannes/symphony-no-3-3rd-movement-chords.htm
Привет, Гость.
Предлагаем пройти революционный курс по гитаре.
Подарок от PrimaNota.Ru, забирай!