PrimaNota.ru - самый крупный в мире бесплатный архив песенных текстов, аккордов, табулатур и нот


Брамс Иоганнес - Lullaby Opus 44 No 4 - таба, видео

Регистрация Запомнить меня
Войти через:  Facebook Google Twitter Vk Yandex Mail.ru

Брамс Иоганнес - Lullaby Opus 44 No 4 - таба, видео

Печатать
Просмотров: 199
\---Song:-Lullaby-(Opus44-No4)--------\
 \---Composer:-Johannes-Brahms---------\
  \---Transcription-by:Christian Liang--\
  /---E-Mail:christian.liang@gmail.com--/
 /---http://www.classclef.com----------/
/---Enjoy!----------------------------/

==========================================================================
           Lullaby (Opus44-No4) by Johannes Brahms (1833–1897)
==========================================================================

Moderate
Time Signature: 3/4
Key: G major

[1]                                                      
E|-------------|-------------|-------------|-3---2==---0-|-0-----------|
B|---------0-0-|-3====-0-0---|-3======-0-3-|---------0---|-----3-----0-|
G|-------------|-----0======-|-----0-------|---0---0-----|---2====-2---|
D|-------------|---0---------|---0---0==---|-------------|-------------|
A|-------------|-------------|-------------|-------------|-------------|
E|-------------|-3-----------|-3-----------|-3-----------|-2-----------|
   | | | | | | | | | | | | | | | | | | | | | | | | | | | | | | | | | | 
   |   |   |     |   |   |     |   |   |     |   |   |     |   |   |      
L                4             4         4   4   2         2 3 4   3
                 3             3             3


[6]                                                      
E|-------------|-------------|-2-0-----2---|-3=======----|-3======-0---|
B|-1---------0-|-1=====----1-|-----3-------|-----0-------|-----1-----1-|
G|-----2---2---|-----2---2---|-------2-----|---0====-0-0-|---0---0-----|
D|---0---0-----|---0---0-----|-0=====------|-------------|-------------|
A|-------------|-------------|-------------|-------------|-3-----------|
E|-2-----------|-2-----------|-------------|-3-----------|-------------|
   | | | | | | | | | | | | | | | | | | | | | | | | | | | | | | | | | | 
   |   |   |     |   |   |     |   |   |     |   |   |     |   |   |      
L  1   3   3     1   3   3 1   2   3 1 2     4             4   1     1
   2             2                           3             3


[11]                                                      
E|-------------|---------0---|-------------|-3======-0---|-------------|
B|-3======-0---|-1---3-------|-0---3-------|-----1-----1-|-3======-0---|
G|-----0-----0-|---2---2-----|---0====-0-0-|---0---0-----|-----0-----0-|
D|---0---0-----|-------------|-------------|-------------|---0---0-----|
A|-------------|-------------|-------------|-3-----------|-------------|
E|-3-----------|-2-----------|-3-----------|-------------|-3-----------|
   | | | | | | | | | | | | | | | | | | | | | | | | | | | | | | | | | | 
   |   |   |     |   |   |     |   |   |     |   |   |     |   |   |      
L  4             1 3 4 3       3   4         4   1     1   4
   3             2                           3             3

[16]                                                      
E|-------------|-------------|
B|-1---0-------|-------------|
G|---------2---|-0=======----|
D|---0---0-----|-0=======----|
A|-------------|-------------|
E|-2-----------|-3=======----|
   | | | | | | | | | | | | | | 
   |   |   |     |   |   |     
L  1       3     4
   2
Добавлено: 29.02.2012
Другие материалы по этой песне:

Страница создана 29.02.2012
http://primanota.ru/brahms-johannes/lullaby-opus-44-no-4-chords.htm
Привет, Гость.
Предлагаем пройти революционный курс по гитаре.
Подарок от PrimaNota.Ru, забирай!