PrimaNota.ru - самый крупный в мире бесплатный архив песенных текстов, аккордов, табулатур и нот


Брамс Иоганнес - Brahms Lullabye - аккорды и текст, таба, видео

Регистрация Запомнить меня
Войти через:  Facebook Google Twitter Vk Yandex Mail.ru

Брамс Иоганнес - Brahms Lullabye - аккорды и текст, таба, видео

Печатать
Просмотров: 253
Brahms Lullabye
Брамс Иоганнес
		   Brahm's Lullabye

    I don't have the timing, but it doesn't take a
lot to make it sound right.


|-------------------------------------8--7---5-5-/-3-------|
|----5-5---8---5-5--8----5--8----------------------------|
|--------------------------------------------------------------|
|--------------------------------------------------------------|
|--------------------------------------------------------------|
|--------------------------------------------------------------|



|--------------------------------------------7--5------7--8-|
|---------5--6-------------5--6-------6----------8--------|
|----7------------7----7-----------7------------------------|
|--------------------------------------------------------------|
|--------------------------------------------------------------|
|--------------------------------------------------------------|



|----------8---5--------------------------5-----------------|
|-------------------6--8--5------6--8-------8-------------|
|------------------------------5------------------------------|
|---7-7------------------------------------------------------|
|-------------------------------------------------------------|
|-------------------------------------------------------------|



|------------8---5----------------------------------------|
|--------------------6---8---5------6--5----------------|
|----5-5-------------------------5---------7---5--------|
|-----------------------------------------------------------|
|-----------------------------------------------------------|
|-----------------------------------------------------------|     
Добавлено: 07.09.2013
Другие материалы по этой песне:
  • Аккорды и текст

Страница создана 03.06.2012
http://primanota.ru/brahms-johannes/brahms-lullabye-chords.htm
Привет, Гость.
Предлагаем пройти революционный курс по гитаре.
Подарок от PrimaNota.Ru, забирай!