PrimaNota.ru - самый крупный в мире бесплатный архив песенных текстов, аккордов, табулатур и нот


Brahman - Great Help - таба, видео

Регистрация Запомнить меня
Войти через:  Facebook Google Twitter Vk Yandex Mail.ru

Brahman - Great Help - таба, видео

Печатать
Просмотров: 105
Band:Brahman
Album:Eternal Recurrence
Song:Great Help
Standard Tuning

I noticed that its there are no Brahman tabs anywhere so im putting up how
 I play this song. Keep in mind that its only the main guitar part. 
My hope is that someone will take this tab and improve on it, thanks.

CLEAN
e|--------------------------------------------------------------------|
B|--------------------------------------------------------------------|
G|-------99999---1212121212-77777------99999---1212121212-77777-------| x2
D|---9-9999999-9-1212121212-77777--9-9999999-9-1212121212-77777-------| 
A|---7-7777777-9-1010101010-55555--7-7777777-9-1010101010-55555-------|
E|-------------7-----------------------------7------------------------|
for the first part just use your own judgement on how many times to play 
each chord but ive found that this is pretty much it.

DISTORTED 
e|--------------------------------------------------------------------|
B|--------------------------------------------------------------------|
G|-999----12--77-7--999----12--77-7--999----12--77-7--999----12--77-7-|
D|-999-99-12--77-7--999-99-12--77-7--999-99-12--77-7--999-99-12--77-7-| 
A|-777-99-10--55-5--777-99-10--55-5--777-99-10--55-5--777-99-10--55-5-|
E|-----77---------------77---------------77---------------77----------|

e|--------------------------------------------------------------------|
B|--------------------------------------------------------------------|
G|--------------------------------------------------------------------|
D|---10\9-99-99-9-999999-10\9-99-99--9999999-10\9-99-99-9-999999------| 
A|---10\9-99-99-9-999999-10\9-99-99--9999999-10\9-99-99-9-999999------|
E|---8-\7-77-77-7-777777-8-\7-77-77--7777777-8-\7-77-77-7-777777------|
                  ......             .......              ......

e|--------------------------------------------------------------------|
B|--------------------------------------------------------------------|
G|--------------------------------------------------------------------|
D|---10\9-9-9999-9----------------------------------------------------| 
A|---10\9-9-9999-9----------------------------------------------------|
E|---8-\7-7-7777-7----------------------------------------------------|
            ....

CLEAN
e|--------77-7-7-77--77-7-7-777-77-7-7-77--77-7-7-77777---------------|
B|--------88-8-8-88--77-7-7-777-88-8-8-88--77-7-7-77777---------------|
G|--------99-9-9-99--88-8-8-888-99-9-9-99--88-8-8-88888---------------|
D|--------------------------------------------------------------------| 
A|--------------------------------------------------------------------|
E|--------------------------------------------------------------------|
                 .                     .            
on the this part there is some palm muting here and there. if you listen 
to the song the timing can easily be figured out.

e|--5-5-5-5-5-5-5-5/7-7-7-7-7-7-7\5-5-5-5-5-5-5-5/7-7-7-7-7-777777---|
B|--5-5-5-5-5-5-5-5/7-7-7-7-7-7-7\5-5-5-5-5-5-5-5/7-7-7-7-7-777777---|
G|--6-6-6-6-6-6-6-6/8-8-8-8-8-8-8\6-6-6-6-6-6-6-6/8-8-8-8-8-888888---|
D|-------------------------------------------------------------------|
A|-------------------------------------------------------------------|
E|-------------------------------------------------------------------|

e|--------77-7-7-77--77-7-7-777-77-7-7-77--77-7-7-77777--------------|
B|--------88-8-8-88--77-7-7-777-88-8-8-88--77-7-7-77777--------------|
G|--------99-9-9-99--88-8-8-888-99-9-9-99--88-8-8-88888--------------|
D|-------------------------------------------------------------------| 
A|-------------------------------------------------------------------|
E|-------------------------------------------------------------------|
                 .                     .
                           
e|-5-5-5-5-5-5-5-5/7-7-7-7-7-7-7\5-5-5-5-5-5-5-5/7-7-7-7-7-777777777777-|
B|-5-5-5-5-5-5-5-5/7-7-7-7-7-7-7\5-5-5-5-5-5-5-5/7-7-7-7-7-777777777777-|
G|-6-6-6-6-6-6-6-6/8-8-8-8-8-8-8\6-6-6-6-6-6-6-6/8-8-8-8-8-888888888888-|
D|----------------------------------------------------------------------|
A|----------------------------------------------------------------------|
E|----------------------------------------------------------------------|

DISTORTED
e|-------------------------------------------------------------------|
B|-------------------------------------------------------------------|
G|--5-5-555---------4-4-444---------5-5-555---------4-4-444----------|
D|--5-5-555-5-5-555-4-4-444-2-2-222-5-5-555-5-5-555-4-4-444-2-2-222--|
A|--3-3-333-5-5-555-2-2-222-2-2-222-3-3-333-5-5-555-2-2-222-2-2-222--|
E|----------3-3-333---------0-0-000---------3-3-333---------0-0-000--|

e|-------------------------------------------------------------------|
B|-------------------------------------------------------------------|
G|--5---------------4------------------------------------------------|
D|--5-------5-------4-------2----------------------------------------|
A|--3-------5-------2-------2----------------------------------------|
E|----------3---------------0----------------------------------------|

CLEAN
e|--------77-7-7-77--77-7-7-77-77-7-7-777--77-7-7-777777-------------|
B|--------88-8-8-88--77-7-7-77-88-8-8-888--77-7-7-777777-------------|
G|--------99-9-9-99--88-8-8-88-99-9-9-999--88-8-8-888888-------------|
D|-------------------------------------------------------------------| 
A|-------------------------------------------------------------------|
E|-------------------------------------------------------------------|
                 .          .         .           .        
                           
e|-5-5-5-5-5-5-5-5-7-7-7-7-7-7-7-7-5-5-5-5-5-5-5-5-7-77-777-7-77-77--|
B|-5-5-5-5-5-5-5-5-7-7-7-7-7-7-7-7-5-5-5-5-5-5-5-5-7-77-777-7-77-77--|
G|-6-6-6-6-6-6-6-6-8-8-8-8-8-8-8-8-6-6-6-6-6-6-6-6-8-88-888-8-88-88--|
D|-------------------------------------------------------------------|
A|-------------------------------------------------------------------|
E|-------------------------------------------------------------------|

DISTORTED
e|-------------------------------------------------------------------|
B|-------------------------------------------------------------------|
G|--5-5-555---------4-4-444---------5-5-555---------4-4-444----------|
D|--5-5-555-5-5-555-4-4-444-2-2-222-5-5-555-5-5-555-4-4-444-2--------|
A|--3-3-333-5-5-555-2-2-222-2-2-222-3-3-333-5-5-555-2-2-222-2--------|
E|----------3-3-333---------0-0-000---------3-3-333---------0--------|

e|-------------------------------------------------------------------|
B|-------------------------------------------------------------------|
G|--5-5-555---------4-4-444---------5-5-555---------4-4-444----------|
D|--5-5-555-5-5-555-4-4-444-2-2-222-5-5-555-5-5-555-4-4-444----------|
A|--3-3-333-5-5-555-2-2-222-2-2-222-3-3-333-5-5-555-2-2-222----------|
E|----------3-3-333---------0-0-000---------3-3-333------------------|

CLEAN
e|--------------------------------------------------------------------|
B|--------------------------------------------------------------------|
G|-------99999---1212121212-77777------99999---1212121212-77777-------| x2
D|---9-9999999-9-1212121212-77777--9-9999999-9-1212121212-77777-------| 
A|---7-7777777-9-1010101010-55555--7-7777777-9-1010101010-55555-------|
E|-------------7-----------------------------7------------------------|

DISTORTED
e|--------------------------------------------------------------------|
B|--------------------------------------------------------------------|
G|--------------------------------------------------------------------|
D|---10\9-99-99-9-999999-10\9-99-99-9999999-10\9-99-99-9-999999-------| 
A|---10\9-99-99-9-999999-10\9-99-99-9999999-10\9-99-99-9-999999-------|
E|---8-\7-77-77-7-777777-8-\7-77-77-7777777-8-\7-77-77-7-777777-------|
                  ......            .......              ......
e|--------------------------------------------------------------------|
B|--------------------------------------------------------------------|
G|--------------------------------------------------------------------|
D|---10\9-99-99-9-999999-7--------------------------------------------| 
A|---10\9-99-99-9-999999-7--------------------------------------------|
E|---8-\7-77-77-7-777777-5--------------------------------------------|
                  ... .

e|--------------------------------------------------------------------|
B|--------------------------------------------------------------------|
G|------------7\5-5------------/10\7-7-------------7\5-5--------------|
D|-10-9--9-9--7\5-5-10-9--9-9--/10\7-7--10-9--9-9--7\5-5--10-9--9-9---|
A|-10-9--9-9--5\3-3-10-9--9-9--/8-\5-5--10-9--9-9--5\3-3--10-9--9-9---|
E|-8--7--7-7--------8--7--7-7-----------8--7--7-7---------8--7--7-7---|

CLEAN
e|---7-7-7-7-7-7-7-7-7-7-7-7-7-7-7-7-7-7-7-7-7-7-7-7-7-7-7-7-7-7-7-7--|
B|---8-8-8-8-8-8-8-8-7-7-7-7-7-7-7-7-8-8-8-8-8-8-8-8-7-7-7-7-7-7-7-7--|
G|---9-9-9-9-9-9-9-9-8-8-8-8-8-8-8-8-9-9-9-9-9-9-9-9-8-8-8-8-8-8-8-8--|
D|--------------------------------------------------------------------| 
A|--------------------------------------------------------------------|
E|--------------------------------------------------------------------|

e|-5-5-5-5-5-5-5-5-7-7-7-7-7-7-7-7-5-5-5-5-5-5-5-5-7-77-777-7-77-77--|
B|-5-5-5-5-5-5-5-5-7-7-7-7-7-7-7-7-5-5-5-5-5-5-5-5-7-77-777-7-77-77--|
G|-6-6-6-6-6-6-6-6-8-8-8-8-8-8-8-8-6-6-6-6-6-6-6-6-8-88-888-8-88-88--|
D|-------------------------------------------------------------------|
A|-------------------------------------------------------------------|
E|-------------------------------------------------------------------|


DISTORTED
e|-------------------------------------------------------------------|
B|-------------------------------------------------------------------|
G|--5-5-555---------4-4-444---------5-5-555---------4-4-444----------|
D|--5-5-555-5-5-555-4-4-444-2-2-222-5-5-555-5-5-555-4-4-444-2--------|
A|--3-3-333-5-5-555-2-2-222-2-2-222-3-3-333-5-5-555-2-2-222-2--------|
E|----------3-3-333---------0-0-000---------3-3-333---------0--------|

e|-------------------------------------------------------------------|
B|-------------------------------------------------------------------|
G|--5-5-555---------4-4-444---------5-5-555---------4-4-444----------|
D|--5-5-555-5-5-555-4-4-444-2-2-222-5-5-555-5-5-555-4-4-444-5--------|
A|--3-3-333-5-5-555-2-2-222-2-2-222-3-3-333-5-5-555-2-2-222-5--------|
E|----------3-3-333---------0-0-000---------3-3-333---------7--------|

e|--------------------------------------------------------------------|
B|--------------------------------------------------------------------|
G|-999----12--77-7--999----12--77-7--999----12--77-7--999----12--77-7-|
D|-999-99-12--77-7--999-99-12--77-7--999-99-12--77-7--999-99-12--77-7-|
A|-777-99-10--55-5--777-99-10--55-5--777-99-10--55-5--777-99-10--55-5-|
E|-----77---------------77---------------77---------------77----------|

CLEAN
e|--------------------------------------------------------------------|
B|--------------------------------------------------------------------|
G|-------99999---1212121212-7-7-7--9\---------------------------------|
D|---9-9999999-9-1212121212-7-7-7--9\---------------------------------| 
A|---7-7777777-9-1010101010-5-5-5--7\---------------------------------|
E|-------------7------------------------------------------------------|

LYRICS
I dont know why
I spent my whole time there, for so long
just wandering around without any thoughts

how much time passed and days spent so far?
How much time passed from the day I prayed?

I used to say
you dont need to know yourself, your real life
now I feel like I can understand myself

some people make me to learn myself
some just tried to take me to the answer

dont let this surge in me to take over
I can see you standing for the light to come

you said
I spent my whole time there, for so long
just wandering around without any thoughts

how much time passed and days spent so far?
How much time passed from the day I prayed?

Dont let this surge in me to take over
I can see you standing for the light to come

waiting for the same real light to show my way
I pray day by day for the day to come

(screaming in Japanese)

I used to say
you dont need to know yourself, your real life
now I feel like I can understand myself

some people make me to learn myself
some just tried to take me to the answer

dont let this surge in me to take over
I can see you standing for the light to come

waiting for the same real light to show my way
I pray day by day for the day to come

http://www.tc-tc.com/
Добавлено: 29.09.2013
Другие материалы по этой песне:
  • Аккорды и текст

Страница создана 29.09.2013
http://primanota.ru/brahman/great-help-chords.htm
Привет, Гость.
Предлагаем пройти революционный курс по гитаре.
Подарок от PrimaNota.Ru, забирай!