PrimaNota.ru - самый крупный в мире бесплатный архив песенных текстов, аккордов, табулатур и нот


Brad - Interlude - таба, видео

Регистрация Запомнить меня
Войти через:  Facebook Google Twitter Vk Yandex Mail.ru

Brad - Interlude - таба, видео

Печатать
Просмотров: 59
                                    Intro
e|---------------------------------------------------------------------------|
B|---------------------------------------------------------------------------|
G|---------------------------------------------------------------------------|
D|---0-0-0-0-0-0-0-0-0-0-0-0-0-0-0-0-0---------------------------------------|
A|--5-5-5-5-5-5-5-5-0-5-5-5-5-5-5-5-5----------------------------------------|
E|---------------------------------------------------------------------------|
                                    Stage 1
e|---------------------------------------------------------------------------|
B|---------------------------------------------------------------------------|
G|---------------------------------------------------------------------------|
D|---0-0-0-0-0-0-0-0-0-0-0-0-0-0-0-0-0---------------------------------------|
A|--0-5-5-5-5-4-4-4-4-2-2-2-2-2-2-2-2----------------------------------------|
E|---------------------------------------------------------------------------|
                                    Stage 1
e|---------------------------------------------------------------------------|
B|---------------------------------------------------------------------------|
G|---------------------------------------------------------------------------|
D|---0-0-0-0-0-0-0-0-0-0-0-0-0-0-0-0-0---------------------------------------|
A|--0-5-5-5-5-4-4-4-4-2-2-2-2-2-2-2-2----------------------------------------|
E|---------------------------------------------------------------------------|
                                    Stage 2
e|---------------------------------------------------------------------------|
B|---------------------------------------------------------------------------|
G|---------------------------------------------------------------------------|
D|---0-0-0-0-0-0-0-0-0-0-0-0-0-0-0-0-0---------------------------------------|
A|--0-7-7-7-7-9-9-9-9-5-5-5-5-5-5-5-5----------------------------------------|
E|---------------------------------------------------------------------------|
                                    Stage 1
e|---------------------------------------------------------------------------|
B|---------------------------------------------------------------------------|
G|---------------------------------------------------------------------------|
D|---0-0-0-0-0-0-0-0-0-0-0-0-0-0-0-0-0---------------------------------------|
A|--0-5-5-5-5-4-4-4-4-2-2-2-2-2-2-2-2----------------------------------------|
E|---------------------------------------------------------------------------|
                                    Stage 3
e|---------------------------------------------------------------------------|
B|---------------------------------------------------------------------------|
G|---------------------------------------------------------------------------|
D|---0-0-0-0-0--0--0--0--0--0--0--0--0--0--0--0--0---------------------------|
A|--0-9-9-9-9-12-12-12-12-17-17-17-17-17-17-17-17----------------------------|
E|---------------------------------------------------------------------------|
                                    Stage 4
e|---------------------------------------------------------------------------|
B|---------------------------------------------------------------------------|
G|---------------------------------------------------------------------------|
D|---------------------------------------------------------------------------|
A|-----0--0-0-0-0-0-0-0-0-0-0-0-0-0------------------------------------------|
E|---12-12-9-9-7-7-5-5-5-5-5-5-5-5-------------------------------------------| 
Добавлено: 02.01.2016
Другие материалы по этой песне:
  • Аккорды и текст

Страница создана 02.01.2016
http://primanota.ru/brad/interlude-chords.htm
Привет, Гость.
Предлагаем пройти революционный курс по гитаре.
Подарок от PrimaNota.Ru, забирай!