PrimaNota.ru - самый крупный в мире бесплатный архив песенных текстов, аккордов, табулатур и нот


Brad Sucks - Understood By Your Dad - бас-таба, видео

Регистрация Запомнить меня
Войти через:  Facebook Google Twitter Vk Yandex Mail.ru

Brad Sucks - Understood By Your Dad - бас-таба, видео

Печатать
Просмотров: 164
-------------------------------------------------------------------------------
			          UNDERSTOOD BY YOUR DAD - Brad Sucks
-------------------------------------------------------------------------------

Tabbed by ibbert42

(Note: "/" = Slide up or slide down)

Intro
G|----------------------------------------|
D|----------------------------------------|
A|-4--7/2--2-2---9-9-9---4--7/2-2-2-------| x3
E|-----------------------------------2-2-2| 

Verse
G|-----------------------------------------------------------------|
D|-----------------------------------------------------------------|
A|-4-4-4-4-4-4-4-4-4-4-4-4-4-4-4-4-2-2-2-2-2-2-2-2-2-2-2-2-2-7-9-7-| x2
E|-----------------------------------------------------------------|

Chorus
G|-----------------------------------------------------|
D|-----------------------------------------------------|
A|-4-4--7/2--2/9-9--11/7-7---4-4--7/2--2/9--9--9/2-2-2-| x2
E|-----------------------------------------------------|

End
G|-----------|
D|-----------|
A|-4---------| x1
E|-----------|
   Let ring___

 | Silent until ~0:26
 | Intro
 | Verse
 | Chorus
 | Verse
 | Chorus
 | Silent until ~2:17
 | Verse  (quietly)
 | Chorus (normal)
 | End
Добавлено: 10.05.2012
Другие материалы по этой песне:
  • Аккорды и текст

Страница создана 10.05.2012
http://primanota.ru/brad-sucks/understood-by-your-dad-chords.htm
Привет, Гость.
Предлагаем пройти революционный курс по гитаре.
Подарок от PrimaNota.Ru, забирай!