PrimaNota.ru - самый крупный в мире бесплатный архив песенных текстов, аккордов, табулатур и нот


Brad Sucks - I Think I Started A Trend - аккорды и текст, видео

Регистрация Запомнить меня
Войти через:  Facebook Google Twitter Vk Yandex Mail.ru

Brad Sucks - I Think I Started A Trend - аккорды и текст, видео

Печатать
Просмотров: 131
Уроки эстрадного вокала в Санкт-Петербурге
I Think I Started A Trend
Brad Sucks
Brad Sucks - I Think I Started A Trend

tabbed by jojo4400@web.de


e|--------------------------------5-5------------------|
B|--6----6---6-8--6------6---8--8-----8--8-8-6-6-8-8-8-|
G|----7----7--------7--7---7---------------------------|
D|-----------------------------------------------------|
A|-----------------------------------------------------|
E|-----------------------------------------------------|

--------------------------------5-5----------------|
--6---6---6-8--6------6---8--8------8--8--8-6-8-6--|
----7---7--------7--7---7--------------------------|
---------------------------------------------------|
---------------------------------------------------|
---------------------------------------------------|
                  


Verse:
F  (133211)
Dm (XX0231)
G  (3X0003) 
C  (X32010)

Chorus:
Bb (X13331)
C  (X35553)
G  (355433)




F                       Dm                          G
    washed up on the shoreline getting sand in my face

                C                            F
    i took it hard and now i'm spending my days

                 Dm                          G
    drunk lying around in total comfort and sin

                  C
    and if you believe me i can do it again



Bb                     C
    sold out all my friends and then i took it easy

Bb              C
    everybody said they never would believe me

Bb                C                  G
    i paid no attention to the very end


    oh yeah i think i started a trend



F                       Dm                         G
    dead clothes horses running crazy out of the gates

                         C
    player haters in the meadow learning how to create

F                     Dm                       G
    big belly well he said he was a man from LA

                C
    he seemed okay and so i signed it away



Bb                     C
    sold out all my friends and then i took it easy

Bb              C
    everybody said they never would believe me

Bb                C                  G
    i paid no attention to the very end


    oh yeah i think i started a trend



e|---------------------------------5-5---------------|
B|--6----6---6-8--6----6---6--8--8-----8--8--8-6-8-6-|
G|----7----7--------7----7---------------------------|
D|---------------------------------------------------|
A|---------------------------------------------------|
E|---------------------------------------------------|

--------------------------------5-5-----------------|
--6---6---6-8--6----6---6--8--8-----8--8-6-8-6-8-6--|
----7---7--------7----7-----------------------------|
----------------------------------------------------|
----------------------------------------------------|
----------------------------------------------------|

Bb                     C
    sold out all my friends and then i took it easy

Bb              C
    everybody said they never would believe me

Bb                C                  G
    i paid no attention to the very end


    oh yeah i think i started a trend
Добавлено: 29.05.2012
Другие материалы по этой песне:
  • Аккорды и текст

Страница создана 29.05.2012
http://primanota.ru/brad-sucks/i-think-i-started-a-trend-chords.htm
Привет, Гость.
Предлагаем пройти революционный курс по гитаре.
Подарок от PrimaNota.Ru, забирай!