PrimaNota.ru - самый крупный в мире бесплатный архив песенных текстов, аккордов, табулатур и нот


Brad Paisley - What A Friend We Have In Jesus - текст песни, таба, видео

Регистрация Запомнить меня
Войти через:  Facebook Google Twitter Vk Yandex Mail.ru

Brad Paisley - What A Friend We Have In Jesus - текст песни, таба, видео

Печатать
Просмотров: 138
Уроки эстрадного вокала в Санкт-Петербурге
-
        what a friend we have in jesus - Brad Paisley
-------------------------------------------------------------------------------
Tabbed by:njb_77
Email:

Tuning:drop D tuning

e|-------2-----------------|-0h3-2h3p2p0-------------------|
B|-----3---2-2-----3-------|-------------2h4p0-------------|
G|-------------2/0---0---0-|-------------------4p0---------|
D|---0------------------2--|-----------------------4p0-----|
A|--0------------------0---|---------------------------4p0-|
D|-0-----------------------|-------------------------------|

e|-----------------------|-----------|
B|------------12+--7+-5+-|-----------|
G|-----------------------|-----12+---|
D|---7+-12+-7+---7+------|-12+-------|
A|-0---------------------|-12+-------|
D|-----------------------|-----------|

e|-------0-----------------|-0h5------5-----5h7p5------|
B|-----7---------3---0h2/7-|-----------------------7---|
G|----7--6-6-------0-------|---------------------0-----|
D|-----------7/5-----------|------7-------7------------|
A|--0----------------------|-----0------0--------------|
D|-0-----------------------|-0------0------------------|

e|---------------------|------------0-----2p0-----5------|
B|--3-------0------3---|----------3-----------3/7---7----|
G|---------------------|--0h2----------------------------|
D|----0---0----0-----0-|-------0------0------------------|
A|---------------------|------------------------------0--|
D|--5---5---------5----|--0-------0-----0----------------|

e|---------------5--7-9-|-0--5----5h7p5------|---------------------|
B|-----7----8-----------|-7-------------7-5-5|-3----3--------3--0--|
G|----6----6-----6--7-9-|-0-7---7-------7-5--|---------0-0h4-------|
D|---5----5-------------|------0-------------|---0----0-----0------|
A|--0----0----0-0-------|--------------------|---------------------|
D|----------------------|-0------------------|-5---5-----------5---|

e|------0h2p0-------|-----------------------0h2p0--|----0--0-2-2b0|
B|---3----------3-2-|----------------------3-----3-|---2-4-2------|
G|-2-2--0h2p0-------|--------------0------2--------|--2----2------|
D|---0----------4-2-|---------0---2--0h2h4--------0|-------2------|
A|---2--------0-----|-------2---4------------------|-0-----0------|
D|-0---2------------|-0-2-4------------------------|--------------|

e|---5---5h7p5--|-7-----7---5--------|---------------5-7-5-------|
B|-7----------7-|-----------7-7-7h8p7|-5--5---78----5------5-----|
G|-7---7-------7|----0--------7-7----|---6---6-----6---------0---|
D|--------------|---0-0--------------|--7---7-----7--------------|
A|--------------|--------------------|-0---------0---------------|
D|-0------------|-5-----0-0----------|---------------------------|


e|--------5---5h7p5-------|--------0--------------|--------0h2p0------|
B|----7-------7-----7p5-5-|------3----------------|-----3--0-----3-2--|
G|------7---7-------7p5---|--0----------4--4-3----|--2--2--0----------|
D|--0---------------------|--0------------------0-|--0--0--2----------|
A|------------------------|--5--------------------|--0--2--2----------|
D|-0----------------------|--5-5---5--5-5-5----5--|--0--0--2----------|


e|---------------------------------|--------------------------------|
B|---------12+-------7+------------|---------3----3---3-------------|
G|------12+--------7+--------------|------2---2---2h4-2-------------|
D|----12+--------7+----------0h2p0-|--2h4-4----4---------4p2p0---0--|
A|--12+--------7+-------0h2h4------|---------------------------2----|
D|-0-------------------------------|--0---0-------------------------|

e|---------------------|----------------|----------------------|
B|---------------------|----------------|-----3-----7--5-------|
G|----0-0-0----0-------|-----2---0---2--|----0-----------6-----|
D|----0--0----0------0-|---0---0---4---4|-2-2--3-2-7-0-5---5---|
A|---------0h2------2--|--0-----5-------|--0-------------------|
D|-4s5-----------0-5---|-0--------------|----------------------|

e|---------5-7-5-------|------------------------|-------0h20------|
B|------5h7-----7-5s3--|-----3-5-3----------3---|-2-3-3-0---3-2-7-|
G|-----7-------------4-|-----------------0h4--0-|-----2-2---------|
D|--3s7----------------|--------------0h4-------|-----0-----------|
A|---------------------|----5------0h4----------|-----2-----------|
D|-0-------------------|-3s5--------------------|-0-----2---------|

e|----------------------|----0-0h2--3p0-|-0-2--2/5-10-|
B|---------5---7---10/7-|---2----2--0---|---3-3--7-10-|
G|----7------7---11-----|--------0--2---|---2----7-11-|
D|---7------------------|--2-----2--0---|---0----0-0--|
A|--------5-------------|-0-------------|---0----0-0--|
D|--0---0---------------|---------------|---0----0-0--|

e|-7----7-5----------|--------------------|----5--5-5h7p5-------|
B|-0---0--7-7--7h8p7-|----2--------7----5-|---7--7--------7-5-5-|
G|-0--0---7--7-7-----|---0----0---0----6--|--7--7--7------7-5---|
D|-0-0---------------|--2----2---7----5---|---------------------|
A|-------------------|-0-------------0----|---------------------|
D|-------------------|------2---7---------|-0-------------------|

e|------------------|-----0h2-0-------|---------0---------|
B|-3-----3--0---3-0-|---3-------3-2---|-----3--------3----|
G|-0---0-------4----|-2-2-2--------0--|---2---2---2----2--|
D|-0-0----0---------|-0-0-2---------0-|--0---0-0---0-0--0-|
A|-5----------5-----|-0-2-----0-------|-2---2---2---------|
D|-5---5------------|-0-0-------------|-------------------|

e|----------0---|-----0h2p0-----|-7----7----7-|
B|----3---3-3---|---3-------3-2/|-----0-0-----|
G|---3---3--3-3-|-2-2-2---------|----0----0--0|
D|--2---2---2---|-0-0-----------|---0----0----|
A|-3--------3---|-0-2-----------|-------------|
D|--------------|-0---2---------|-5-----------|

e|-10---10---10---12-|--------14-15-14----------|-------------------|
B|-----0--0----0--12-|------15--------15--------|--7+---------------|
G|----0-----0---0-12-|----14------------14/11---|--7+---------------|
D|---0-----0------14-|---0-------------------12-|--7+---------------|
A|-------------------|--0-----------------------|-------------------|
D|-9-----------------|-0------------------------|-0-----------------|
Добавлено: 16.04.2012
Другие материалы по этой песне:

Страница создана 16.04.2012
http://primanota.ru/brad-paisley/what-a-friend-we-have-in-jesus-chords.htm
Привет, Гость.
Предлагаем пройти революционный курс по гитаре.
Подарок от PrimaNota.Ru, забирай!