PrimaNota.ru - самый крупный в мире бесплатный архив песенных текстов, аккордов, табулатур и нот


Brad Paisley - Turfs Up - таба, видео

Регистрация Запомнить меня
Войти через:  Facebook Google Twitter Vk Yandex Mail.ru

Brad Paisley - Turfs Up - таба, видео

Печатать
Просмотров: 124
I am 100% sure that this is correct, but if you prove me wrong, please tell:]
------------------------------------------------------------------------|
------------------------------------------------------------------------|
---------------------h-----------------------2--------------------------|
-------------0--2---0-2-0------------------3----------------------------|
---0-0-0-3--------------------3-2-------3-------------------------------|
--------------------------------------1---------------------------------|

---------------------------------------0------------------------------|
-------------------------------------1--------------------------------|
---------------------h-------------2----------------------------------|
--------------2---0-2-0----------2------------------------------------|
-----------2---------------3-2-0--------------------------------------|
--0-0-0-4-------------------------------------------------------------|

--1---------5----------8------------------------------------------|
--1---------6----------10-----------------------------------------|
--2---------5----------10-----------------------------------------|
------------------------------------------------------------------|
------------------------------------------------------------------|
------------------------------------------------------------------|
Добавлено: 15.06.2012
Другие материалы по этой песне:
  • Аккорды и текст

Страница создана 15.06.2012
http://primanota.ru/brad-paisley/turfs-up-chords.htm
Привет, Гость.
Предлагаем пройти революционный курс по гитаре.
Подарок от PrimaNota.Ru, забирай!