PrimaNota.ru - самый крупный в мире бесплатный архив песенных текстов, аккордов, табулатур и нот


Brad Paisley - Throttleneck - таба, видео

Регистрация Запомнить меня
Войти через:  Facebook Google Twitter Vk Yandex Mail.ru

Brad Paisley - Throttleneck - таба, видео

Печатать
Просмотров: 202
This is not the whole song but the first part of it. If anyone can figure out the
rest please tab it.


E--------------------------------------------------------------------------|
B-----------------------1--------------------------------------------------|
G----------------------3----------------------------------------------5-7--|
D-0-2-3~-5/7--7\5~-3--3-----2-2-2-2-2h3p2h3p2p0-0-------0-0-0----0h5h7-----|
A-----------1----0-----------------------0-3p0--------------0h3h5----------|
E----------------------------------------------10-10-10h1h3----------------|


E-----------------------------1~~------------1-----------1-----------1---0---|
B-5h6p5---------------3~~---5-----3----3-----3-----3-----3-----3------3------|
G-------5-7-------------------2~~---5---2---2------2---2---------------2-----|
D-----------7p5h7p5p0---------0~~3/5---0----------0----------0-0---0-0---0-0-|
A---------------------3/5----------------------------------------------------|
E-------------------------10-------------------------------------------------|

E---------------------------------------------------------------------------|
B-3-------------------------------------------------------------------------|
G--2---------x------------------------------------2~------------------------|
D---0--------x-----0-0-0-0-2-3~-5/7-5~-3----------2~-2-2-2-2h3p2p0-----0----|
A-----0-3/5--x-------------------1~-----0------------------3-0---0-3-0-3/5--|
E--------------7\-------------------------10-1~-----------------------------|

E----------------------------------------------------------------------------|
B----------------------------------------------------------------------------|
G-------------------x-----------------------------------2--------------------|
D-------------------x-------------2-3~-5/7~-7\5~-3------2---2---2h3p2----0---|
A-5-0x-0x-5-0x-0x-5-x-----5-5-5-5---------3b-1--0--0-0-------3-0---0-3-0-3/5-|
E-------------------7/-------------------------------------------------------|

E---------------------------------------------------------------------------|
B-----------------------------1--3-1-------1--------------------------------|
G-------------------------0-2--------2\1/2---5---------------5-5-----5----5-|
D-----------0-2-3----------------------5PBr(7)-3-5/7---5b(7)-5b(7)-5br(7)5--|
A-5---5---5---5---3---------------------------------------------------------|
E-10-10-10-10-10-10-10------------------------------------------------------|

E------------3--------------------------------------------------------------|
B--------------3-6----------------------------------------------------------|
G-------5b(7)------5b(7)-5-------5p0--5p0--3p0--2--2-3-2-5-3-3b(5)----------|
D--------------------------0h5h7----7----7----5-----------------------------|
A-0h5h7--------------------------------------------------7-5-5b(7)----------|
E---------------------------------------------------------------------------|

E---------------------------------------------------------------------------|
B-------------1--3-1-------1------------------------------------------------|
G---------0-2--------2\1/2----5---------------5-5-----5-----5----5b(7)------|
D---0-2-3-----------------------5pbr(7)-3-5/7---5b(7)-5b(7)-5b(7)-5---------|
A-3------------------------------------------------------------------0h5h7--|
E---------------------------------------------------------------------------|

E-3-------------------------------------------------------------------------|
B---3-6--------------------------------------------------------------12-----|
G----5B(7)----5p0--3p0--2p0---4p0---5p0---7p0---9p0---10p0----11p0----12----|
D-------------0h5h7----7----5----0-----6-----7-----9-----11-----12------13--|
A---------------------------------------------------------------------------|
E---------------------------------------------------------------------------|
Добавлено: 20.06.2012
Другие материалы по этой песне:
  • Аккорды и текст

Страница создана 12.06.2012
http://primanota.ru/brad-paisley/throttleneck-chords.htm
Привет, Гость.
Предлагаем пройти революционный курс по гитаре.
Подарок от PrimaNota.Ru, забирай!