PrimaNota.ru - самый крупный в мире бесплатный архив песенных текстов, аккордов, табулатур и нот


Brad Mehldau Trio - Knives Out - бас-таба, видео

Регистрация Запомнить меня
Войти через:  Facebook Google Twitter Vk Yandex Mail.ru

Brad Mehldau Trio - Knives Out - бас-таба, видео

Печатать
Просмотров: 76
Авторы музыки: Ed O'Brien, Philip Selway, Thom Yorke, Jonny Greenwood, Colin Greenwood

-------------------------------------------------------------------------------
                             Knives Out - Brad Mehldau Trio
-------------------------------------------------------------------------------
Double Bass Intro

Tabbed by: Seth

Tuning: EADG

              +                      +    +       ~

G|-----8---7--0---5----8--8-|--5--8--0----0-------7-----|
D|-----10--8--12--6----6--6-|--6--6--12---12------------|
A|--------------------------|------------------8------8-|
E|--8-----------------------|---------------------------|
           

              +    +              +

G|----------------12--------|-----12--------------------|
D|------------12--------8/9-|------------8/9-8/9--------|
A|--------------------------|------------------------10-|
E|--0-----------------------|--0-------0----------------|


| /  slide up
| ~  vibrato
| +  harmonic

http://www.bradmehldau.com/

===============================================================================
Добавлено: 04.06.2013
Другие материалы по этой песне:

Страница создана 04.06.2013
http://primanota.ru/brad-mehldau-trio/knives-out-chords.htm
Привет, Гость.
Предлагаем пройти революционный курс по гитаре.
Подарок от PrimaNota.Ru, забирай!