PrimaNota.ru - самый крупный в мире бесплатный архив песенных текстов, аккордов, табулатур и нот


Bracket - Girl From Marin - таба, видео

Регистрация Запомнить меня
Войти через:  Facebook Google Twitter Vk Yandex Mail.ru

Bracket - Girl From Marin - таба, видео

Печатать
Просмотров: 113
-------------------------------------------------------------------------------
Everyone...Girl From Marin - Bracket
-------------------------------------------------------------------------------

By: Al (arw0@hotmail.com)

Bass intro 2x
E|---------------------------------------------------------------------------|
B|---------------------------------------------------------------------------|
G|---------------------------------------------------------------------------|
D|---------3-3-3-3-4-4-4-4-0-0-0-0---------1-1-1-1-2-2-2-2-------------------|
A|-2-2-2-2-------------------------0-0-0-0-----------------1-1-1-1-----------|
E|---------------------------------------------------------------------------|

Guitar joins in:
E|---------------------------------------------------------------------------|
B|---------------------------------------------------------------------------|
G|--3-3-3-4----4-------------------------------------------------------------|
D|--3-3-3-4----4-------------------------------------------------------------|
A|--1-1-1-2----2-------------------------------------------------------------|
E|---------------------------------------------------------------------------|

Verse
E|---------------------------------------------------------------------------|
B|---------------------------------------------------------------------------|
G|--4--------4--4--------4-----------4-----------4---------------------------|
D|--4--4--5--4--4--4--5--4--2--4--5--4--2--4--5--4---------------------------|
A|--2--4--5--2--2--4--5--2--2--4--5--2--2--4--5--2---------------------------|
E|-----2--3--------2--3-----0--2--3-----0--2--3------------------------------|

Chorus... Play 2x                                     2nd time, end with:
E|----------------------------------------------------|----------------------|
B|----------------------------------------------------|----------------------|
G|--6-6-6-6-6-6-6-6-----------------4-4-4-4-----------|----------------------|
D|--6-6-6-6-6-6-6-6-2-2-2-2-2-2-2-2-4-4-4-4-4-4-4-4---|----4-4-2-------------|
A|--4-4-4-4-4-4-4-4-2-2-2-2-2-2-2-2-2-2-2-2-4-4-4-4---|----4-4-2-------------|
E|------------------0-0-0-0-0-0-0-0---------2-2-2-2---|----2-2-0-------------|

Main Riff:                  2nd time, end with:
E|---------------------------|-----------------------------------------------|
B|-----------3---------------|-----------------------------------------------|
G|--4--------2--2--------3---|---3-3-3-4----4--------------------------------|
D|--4--3--4--0--2--1--2--3---|---3-3-3-4----4--------------------------------|
A|--2--3--4-----0--1--2--1---|---1-1-1-2----2--------------------------------|
E|-----1--2------------------|-----------------------------------------------|

Lead bit, something like this:
E|---------------------------------------------------------------------------|
B|----------------------------------------------S------9-9-9-9-12-12-12-12---|
G|-------S-------S-------S-------S-----8-8-8-8-7\8-8-8-----------------------|
D|--9-9-9\8-9-9-9\8-6-6-6\5-2-2-9\8------------------------------------------|
A|--9-9-9\8-9-9-9\8-6-6-6\5-2-2-9\8------------------------------------------|
E|--7-7-7\6-7-7-7\6-4-4-4\3-0-0-7\6------------------------------------------|
Добавлено: 21.07.2012
Вам также может быть интересно:
Другие материалы по этой песне:
  • Аккорды и текст

Страница создана 21.07.2012
http://primanota.ru/bracket/girl-from-marin-chords.htm
Привет, Гость.
Предлагаем пройти революционный курс по гитаре.
Подарок от PrimaNota.Ru, забирай!