PrimaNota.ru - самый крупный в мире бесплатный архив песенных текстов, аккордов, табулатур и нот


Bracewar - Intro Friends Like - таба, видео

Регистрация Запомнить меня
Войти через:  Facebook Google Twitter Vk Yandex Mail.ru

Bracewar - Intro Friends Like - таба, видео

Печатать
Просмотров: 144
Уроки эстрадного вокала в Санкт-Петербурге
This is the Intro to..
-- Intro that Friends like - Bracewar.
this is a fun guitar cover for the bass intro and the guitar intro. It's really great.       
BRACEWAR!                     Myspace.com/Bracewar

   Guitar. Intro (After Bass intro ends)
e |-----------------|--------------|---------------|----------------|
B |-----------------|--------------|---------------|----------------|
G |-----------------|--------------|---------------|----------------|
D |-----------------|--------------|-------12--12-12-12-12----------|
A |-----------------|--------------|-------12--12-12-12-12----------|
E |-----------------|--------------|-------10--10-10-10-10----------|
                                               PM.........

   Guitar. Intro Cont'd             Guitar. Riff 1
e |-----------------|--------------|--------------|-----------------|
B |-----------------|--------------|--------------|-----------------|
G |-----------------|--------------|--------------|-----------------|
D |---12--12-12-12-----------------|-6~-----------|-----------------|
A |---12--12-12-12--12-12-12-------|-6~-----------|-----------------|
E |---10--10-10-10--10-10-10-------|-4~-----------|-----------------|
          PM......
e |-------------------|---------------------------|-----------------|
B |-------------------|----------------|----------|-----------------|
G |-------------------|----------------|----------|-----------------|
D |---12--12-12-12-12-|----12-12-12-12-|----------|-----------------|
A |---12--12-12-12-12-|12--12-12-12-12-|----------|-----------------|
E |---10--10-10-10-10-|10--10-10-10-10-|----------|-----------------|
          PM........       PM......

  BRACE..WAR!
e |-----------------|--------------|---------------|----------------|
B |-----------------|--------------|---------------|----------------|
G |-----------------|--------------|---------------|----------------|
D |-6--6--6-6-6--6--6/11-10-10--101010-10-10\6-----|----------------|
A |-6--6--6-6-6--6--6/11-10-10--101010-10-10\6-----|----------------|
E |-4--4--4-4-4--4--4/9--8--8---8-8-8--8--8\-4-----|----------------|
       PM.........          PM............
e |-----------------|--------------|---------------|----------------|
B |-----------------|--------------|---------------|----------------|
G |-----------------|--------------|---------------|----------------|
D |--6--6-6-6--6--6---12--12-12-12-12-12--12-12-12-|12-12-12-6------| x2
A |--6--6-6-6--6--6---12--12-12-12-12-12--12-12-12-|12-12-12-6------|
E |--4--4-4-4--4--4---10--10-10-10-10-10--10-10-10-|10-10-10-4------|
     PM...........        PM.........     PM......
Добавлено: 27.03.2012
Другие материалы по этой песне:
  • Аккорды и текст

Страница создана 27.03.2012
http://primanota.ru/bracewar/intro-friends-like-chords.htm
Привет, Гость.
Предлагаем пройти революционный курс по гитаре.
Подарок от PrimaNota.Ru, забирай!