PrimaNota.ru - самый крупный в мире бесплатный архив песенных текстов, аккордов, табулатур и нот


Bozzio Terry - Falling In Circles - таба, видео

Регистрация Запомнить меня
Войти через:  Facebook Google Twitter Vk Yandex Mail.ru

Bozzio Terry - Falling In Circles - таба, видео

Печатать
Просмотров: 81
Song: Falling in Circles
Album: Black Light Syndrome
Artist: Terry Bozzio
Guitar : Steve Stevens

Transcribed By: Mahim Ranjan (mahim@hotmail.com). 10/27/01
The easiest way to play this song is to hold the chords mentioned below 
as bar chords (except for the last E, which is an open chord)
All additions/corrections are welcome. 



    Em                                    Em
E--------------------------------------------------------------------------
B----------8---10---12--12p10------------8---10---12-12p10-----------------
G------9------------------------------9------------------------------------
D----9---9---9----9-----------------9---9--9----9--------------------------
A--7------------------------------7----------------------------------------
E--------------------------------------------------------------------------
  
  C#m                                    C#m
E--------------------------------------------------------------------------
B---------5---7---9--9p7-----------5---7---9--9p7--------------------------
G------6-----------------------6-------------------------------------------
D----6--6---6---6------------6---6---6---6---------------------------------
A--4-----------------------4-----------------------------------------------
E--------------------------------------------------------------------------
  Em                                    Em  
E--------------------------------------------------------------------------
B----------8---10---12--12p10------------8---10---12-12p10-----------------
G------9------------------------------9------------------------------------
D----9---9---9----9-----------------9---9--9----9--------------------------
A--7------------------------------7----------------------------------------
E--------------------------------------------------------------------------
  C#m    d                           C#m
E--------------------------------------------------------------------------
B---------5---7---9--9p7-----------5---7---9--9p7--------------------------
G------6-----------------------6-------------------------------------------
D----6--6---6---6------------6---6---6---6---------------------------------
A--4-----------------------4-----------------------------------------------
E--------------------------------------------------------------------------
  F#m                                F#m
E--------------------------------------------------------------------------
B--------------------------------------------------------------------------
G----------2---4---6--6p4----------2---4---6--6p4--------------------------
D------4-----------------------4-------------------------------------------
A----4---4---4---4-----------4---4---4---4---------------------------------
E--2-----------------------2-----------------------------------------------
  A                                   E
E--------------------------------------------------------------------------
B--------------------------------------------------------------------------
G-----------6---7---6----------------1---2---1-----------------------------
D------7--------------7---------2--------------2---------------------------
A----7---7----7---7-----------2---2----2---2-------------------------------
E--5------------------------0----------------------------------------------
 


     
Добавлено: 22.09.2013
Другие материалы по этой песне:
  • Аккорды и текст

Страница создана 22.09.2013
http://primanota.ru/bozzio-terry/falling-in-circles-chords.htm
Привет, Гость.
Предлагаем пройти революционный курс по гитаре.
Подарок от PrimaNota.Ru, забирай!