PrimaNota.ru - самый крупный в мире бесплатный архив песенных текстов, аккордов, табулатур и нот


Bozzio Levin Stevens - Spiral - таба, видео

Регистрация Запомнить меня
Войти через:  Facebook Google Twitter Vk Yandex Mail.ru

Bozzio Levin Stevens - Spiral - таба, видео

Печатать
Просмотров: 112
BAND: bozzio, levin, stevens
SONG: spiral
ALBUM: situation dangerous
tabbed: simon
e-mail: winged_paranoid_Android@hotmail.com

 Legend

nh - natural harmonic

ph - pinch harmonic

pm - palm mute

x - muted string

h - hammer on

p - pull off

\\ - slide down

// - slide up

b - bend

~~ - vibrato

<7> - natural harmonic

x/// - pick scrape (directions same as slide)


<----note--->

this is only guitar 1 of the song.
this song isnt finished yet, i'm still trying to figure out the last 30 seconds.. and 
they will come.
the song is done by ear and own guitare playing, so there might be some faults in it. 
me a comment if you want to know
something about the song. etc etc. i havnt put this nicely in measure, like it should 
because the tabbing of the song was
hard enough. maybe when i'm finished i will do it. :)
i hope the one's who try to play this song, enjoy it as much as i do, cause steve 
is a guitar master on this piece.
please rate me, and send me comments.
peace out.
----------------------------------------------------------------------------


---3--5-3-2---0--2-0h2-----3-------------------------|
-3----------3----------3---2---7-8-10/15-15-13-12-10-|
---------------------------3-------------------------|
---------------------------0-------------------------|
-----------------------------------------------------|
-----------------------------------------------------|

------------------------------------------|
-------7-8-10-7-8-10/15-15-13-12-10-------|
------7-----------------------------------|
-----0------------------------------------|
--------------------------------------0---|
------------------------------------------|

------------7-10-7-9-10-10/12--10-8-10-------|
---------8-----------------------------10-10-|
---6-7-6-------------------------------------|
-7-------------------------------------------|
---------------------------------------------|
---------------------------------------------|

----10/12-10/12-10/12-10-8-10---------------------|
-10---------------------------10-10-----0h2-2-----|
------------------------------------0-2-----------|
--------------------------------------------------|
--------------------------------------------------|
--------------------------------------------------|


-5-7-9-7-5-7-7-9-7-5-7-0-0-----------------|
----------------------------0-2------------|
-----------------------------------0h2p0---|
-----------------------------------------4-|
-------------------------------------------|
-------------------------------------------|

--------------------------2-2-3-5-10-10-8-7-5--|
---------3-3----1p0-------3--------------------|
---0-2--------------2-----2--------------------|
-4------------------------0--------------------|
-----------------------------------------------|
-----------------------------------------------|


----9---7---5---3---2---0-----3---------2/3-2/3-2/3-|
-10----8---7---5---3---2---2h3---4h5p4-3------------|
----------------------------------------------------|
----------------------------------------------------|
----------------------------------------------------|
----------------------------------------------------|

------------------------------------------7-9-10-9-7---9-7-5-----5-3\0-|
-5-4-3-2-3-2-----------2------------7-8-10----------10-------8-7-------|
--------------2-0-2--4-------6-7-9-------------------------------------|
---------------------------9-------------------------------------------|
-----------------------------------------------------------------------|
-----------------------------------------------------------------------|

----------------7-9-10-9-7---9-7-5-----5-3\0---2--2tr-3tr-5tr-10-10-8-7-5-|
----------7-8-10----------10-------8-7---------3--------------------------|
---6-7-9---------------------------------------2--------------------------|
-9---------------------------------------------0--------------------------|
--------------------------------------------------------------------------|
--------------------------------------------------------------------------|

0-----------------------2-3-2------2-------------2-2tr-3tr-5tr-10-10-8-7-5-|
5-5-7-8-10-8-7-5-3-3-3---------5-3---5-3---------3-------------------------|
4-----------------------------------------2-0----2-------------------------|
0--------------------------------------------4-2-0-------------------------|
---------------------------------------------------------------------------|
---------------------------------------------------------------------------|


0-----0------0---0-2-3-2-2----2-----2---2-3-5-3-4-----4-----5---4-5-7-5----|
1---1---1------1---------3--3---3-----3---------5---5---5-----4------------|
0-0-------0--------------2-2------2-------------4-4-------4----------------|
---------------------------------------------------------------------------|
---------------------------------------------------------------------------|
---------------------------------------------------------------------------|

-3-0---3-3-0----5-5-0---5-5---5---------------3---3---3---3---3-----------|
-----1-------1--------3-----3-3---------0---0---0---0---0---0---0---------|
--------------------------------------------------------------------------|
---------------------------------rest----2--------------------------------|
--------------------------------------------------------------------------|
--------------------------------------------------------------------------|


-2h3h5-0---0---0---0----------7-10-7-8---------8---7----------------------|
---------0---0---0-------5-8-----------10-7-10--10-----8-5-8--------------|
---------------------4-5--------------------------------------------------|
--------------------------------------------------------------------------|
--------------------------------------------------------------------------|


----7-5-3-----2------3-----2-----3-----2----3----2--3---|
---------4-----4------4-----4-----4-----4----4---4---4--|
----------4-----4------4-----4-----4-----4----4---4---4-|
--------------------------------------------------------|
--------------------------------------------------------|
--------------------------------------------------------|

-0----3---3---3---3---3---2h3h5-0---0---0---0----------7-10-7-8-----------|
-5--0---0---0---0---0---0---------0---0---0---------5-8---------10--7-----|
-4----------------------------------------------4-5-----------------------|
--------------------------------------------------------------------------|
--------------------------------------------------------------------------|
--------------------------------------------------------------------------|


----8---7-------7-5-3----2-----3----2----3----2----3----2----3-----|
-10--10---8-5-8-------4----4----4----4----4----4----4----4----4----|
-----------------------4----4----4----4----4----4----4----4----4---|
-------------------------------------------------------------------|
-------------------------------------------------------------------|
-------------------------------------------------------------------|

0----3---3---3---3---3---2h3h5-0---0---0---0------------7-10-7-8-|
5--0---0---0---0---0---0---------0---0---0----------5-8----------|
4-----------------------------------------------4-5--------------|
-----------------------------------------------------------------|
-----------------------------------------------------------------|
-----------------------------------------------------------------|

-------8---7-------7-5-3----2-----3----2----3----2----3----2----3-----|
10-7-10-10---8-5-8-------4----4----4----4----4----4----4----4----4----|
--------------------------4----4----4----4----4----4----4----4----4---|
----------------------------------------------------------------------|
----------------------------------------------------------------------|
----------------------------------------------------------------------|

0----3---3---3---3---3---2h3h5-0---0----0----0--------7-10-7-8---------8---|
5--0---0---0---0---0---0---------0----0---0-------5-8---------10-7--10--10-|
4--------------------------------------------4-5---------------------------|
---------------------------------------------------------------------------|
---------------------------------------------------------------------------|
---------------------------------------------------------------------------|

-7---------7-5-3----2-----3----2----3----2----3----2----3---|
---8-5-8--------4-----4----4----4----4----4----4----4----4--|
-----------------4-----4----4----4----4----4----4----4----4-|
------------------------------------------------------------|
------------------------------------------------------------|
------------------------------------------------------------|

-7-------------------------------------------------------------------------|
-8-12--12-10-10-8-8-10-10-12--12-12-12-12-12-10-10-10-8/10-10---8-8/10-10--|
-9-12--12-11-11-9-9-11-11-12--12-12-12-12-12-11-11-11-9/11-11---9-9/11-11--|
-9-------------------------------------------------------------------------|
-7-------------------------------------------------------------------------|
---------------------------------------------------------------------------|

-----------------7-----------7-8-7-10-8-7----8-7------7---------------------|
-----------------8----7-8-10-------------10-----10-8---10-8-7-10p8p7-10p8p7-|
-----------------9--9-------------------------------------------------------|
-2-0-2----2-0-2--9----------------------------------------------------------|
----------0-0-0--7----------------------------------------------------------|
----------------------------------------------------------------------------|

------------7-10-8-7----8-7-------12--14--15--14--12--12-10-10-8-7-5-8-7-|
----------8----------10-----10-8----12--12--12--12--12-------------------|
9--9--9-9----------------------------------------------------------------|
-------------------------------------------------------------------------|
-------------------------------------------------------------------------|
-------------------------------------------------------------------------|

5-3-7-5-3-2-5-3-2-0-3-2-0----------------------------------|
--------------------------3-0------------------------------|
------------------------------3-2-0-----2-0----------------|
------------------------------------2-0------2-0-2---------|
-----------------------------------------------------------|
-----------------------------------------------------------|

----------------------------------------------2h3h5------2h3h5--3-2---3-2---|
------------------------------------------3h5--------3h5------------5-----3-|
--------2---------2-0----0--------------------------------------------------|
0h2h4h5---0h2h4h5----4-2----4-0-0/2-2-2-2-----------------------------------|
----------------------------------------------------------------------------|
----------------------------------------------------------------------------|

-----------------------------------------------------------------------|
-1-1-1-1-1-1-1-1-------------------------------------------------------|
-----------------4-4-4-4-4-4-4-2-2-2-2-2-2-2-0-0-0-0-0-0---------------|
---------------------------------------------------------4-4-4-4-4-4-4-|
-----------------------------------------------------------------------|
-----------------------------------------------------------------------|

---7h8h10p8p7---7h8h10p8p7---7h8h10p8p7---7h8h10p8p7---7h8h10p8p7----|
10-----------10-----------10-----------10-----------10---------------|
---------------------------------------------------------------------|
---------------------------------------------------------------------|
---------------------------------------------------------------------|
---------------------------------------------------------------------|

--7h8h10p8p7---7h8h10p8p7-|
10---------10-------------|
--------------------------|
--------------------------|
--------------------------|


the end for now (see the begining for the explanation)

the beginning of guitare 2 (more 2 come!)

-------------0--------------|
-------3-------3-----3------|
---2-----2-------2-----2----| play over and over again
-0---0-----0-------0--------|
----------------------------|
----------------------------|

the site to the three man behind this briliant song
http://64.70.168.20/bls.htm
Добавлено: 27.05.2012
Другие материалы по этой песне:
  • Аккорды и текст

Страница создана 27.05.2012
http://primanota.ru/bozzio-levin-stevens/spiral-chords.htm
Привет, Гость.
Предлагаем пройти революционный курс по гитаре.
Подарок от PrimaNota.Ru, забирай!