PrimaNota.ru - самый крупный в мире бесплатный архив песенных текстов, аккордов, табулатур и нот


Boyz II Men - One More Dance - таба, видео

Регистрация Запомнить меня
Войти через:  Facebook Google Twitter Vk Yandex Mail.ru

Boyz II Men - One More Dance - таба, видео

Печатать
Просмотров: 186
----------------------------------------------------------------------------------
                             One More Dance - Boyz II Men
----------------------------------------------------------------------------------
Tabbed by: Kevin Picar 1/19/2015
E-mail: kevinpicar@gmail.com

Tuning: STANDARD


  =VERSE 1=
 (I was wrong beyond belief...)
e|------------|------------|------------|--------------|
B|---6----6---|---6----6---|---6----6---|---6----6-----|
G|---6----6---|---6----6---|---6----6---|---6----6-----|
D|--8-8--8-8--|--7-7--7-7--|--6-6--6-6--|--5-5--5-5----|
A|------------|------------|------------|--------------|
E|-6----6-----|-6----6-----|-6----6-----|-6----6-------|

 (So I sit here all one...) 
e|------------|------------|------------|--------------|
B|---4----4---|---4----4---|---4----4---|---2---1--1---|
G|---5----5---|---5----5---|---5----5---|---3---1--1---|
D|--5-5--5-5--|--4-4--4-4--|--5-5--5-5--|--4-4--4-4-4--|
A|------------|------------|------------|--------------|
E|-4----4-----|-4----4-----|-4----4-----|-4-----4------|

 (Truth is there's really no excuse...)
e|------------|------------|
B|---2----2---|---2----2---|
G|---1----1---|---1----1---|
D|--3-3--3-3--|--2-2--2-2--|
A|-1----1-----|-1----1-----|
E|------------|------------|

 (So sorry, I hope...)
e|--------------------------------------|
B|---4------3-3------2-2--------2-------|
G|--3-3-----2-2------1-1--------1-------|
D|-----------3-3------3-3------2-2------|
A|-3--------2--------1--------1---------|
E|--------------------------------------|

\\\\\\\\\\\\\\\\\\\\\\\\\\\\\\\\\\\\\\\\\\\\\\\\\\\\\\\\\\\\\\\\\\\\\\\\\\\\\\\\\\
\\\\\\\\\\\\\\\\\\\\\\\\\\\\\\\\\\\\\\\\\\\\\\\\\\\\\\\\\\\\\\\\\\\\\\\\\\\\\\\\\\
  =CHORUS=
 (Save one more dance for me...)
e|------------|------------|------------|--------------|
B|---4----4---|---4----4---|---1----1---|---6---6-6----|
G|---5----5---|---3----3---|---1----1---|---6---5-5----|
D|--6-6--6-6--|--5-5--5-5--|--3-3--3-3--|--4-4---4-4---|
A|------------|------------|------------|-6------------|
E|-4----4-----|-3----3-----|-1----1-----|-------4------|

 (Cause I don't want nobody...)
e|------------|------------|
B|---6----6---|---4----1---|
G|---6----6---|---3----1---|
D|--6-6--5-5--|--5-5--1-1--|
A|-4----4-----|-3----------|
E|------------|------1-----|

 (I swear I'd never...)
e|------------|------------|
B|---6----6---|---4----1---|
G|---6----6---|---3----1---|
D|--6-6--5-5--|--5-5--1-1--|
A|-4----4-----|-3----------|
E|------------|------1-----|

 (Please don't let the...)
e|------1--1---|---44--4---|
B|---1h2---2---|---66--6---|
G|---1------1--|--6---6-6--|
D|--3-----3----|-----------|
A|-1-----1-----|-6---6-----|
E|-------------|-----------|

 (Oooh...)
e|--------------------------------1h4p1-----------------|
B|-----4------3---3-------2---2---2-------2-------------|
G|---3---3----4---4-------1---1-----------1-------------|
D|--------------3---3-------3---3-------3---3-----------|
A|-3----------2-----------1-----------------------------|
E|------------------------------------------------------|

\\\\\\\\\\\\\\\\\\\\\\\\\\\\\\\\\\\\\\\\\\\\\\\\\\\\\\\\\\\\\\\\\\\\\\\\\\\\\\\\\\
\\\\\\\\\\\\\\\\\\\\\\\\\\\\\\\\\\\\\\\\\\\\\\\\\\\\\\\\\\\\\\\\\\\\\\\\\\\\\\\\\\
  =VERSE 2=
 (Maybe I was just afraid...)
e|------------|------------|------------|--------------|
B|---6----6---|---6----6---|---6----6---|---6----6-----|
G|---6----6---|---6----6---|---6----6---|---6----6-----|
D|--8-8--8-8--|--7-7--7-7--|--6-6--6-6--|--5-5--5-5----|
A|------------|------------|------------|--------------|
E|-6----6-----|-6----6-----|-6----6-----|-6----6-------|

 (I'm not saying I was right...) 
e|------------|------------|------------|--------------|
B|---4----4---|---4----4---|---4----4---|---2---1--1---|
G|---5----5---|---5----5---|---5----5---|---3---1--1---|
D|--5-5--5-5--|--4-4--4-4--|--5-5--5-5--|--4-4--4-4-4--|
A|------------|------------|------------|--------------|
E|-4----4-----|-4----4-----|-4----4-----|-4-----4------|

 (Truth is there's really no excuse...)
e|------------|------------|
B|---2----2---|---2----2---|
G|---1----1---|---1----1---|
D|--3-3--3-3--|--2-2--2-2--|
A|-1----1-----|-1----1-----|
E|------------|------------|

 (So sorry, I hope...)
e|--------------------------------------|
B|---4------3-3------2-2--------2-------|
G|--3-3-----2-2------1-1--------1-------|
D|-----------3-3------3-3------2-2------|
A|-3--------2--------1--------1---------|
E|--------------------------------------|

\\\\\\\\\\\\\\\\\\\\\\\\\\\\\\\\\\\\\\\\\\\\\\\\\\\\\\\\\\\\\\\\\\\\\\\\\\\\\\\\\\
\\\\\\\\\\\\\\\\\\\\\\\\\\\\\\\\\\\\\\\\\\\\\\\\\\\\\\\\\\\\\\\\\\\\\\\\\\\\\\\\\\
  =CHORUS=
 (Save one more dance for me...)
e|------------|------------|------------|--------------|
B|---4----4---|---4----4---|---1----1---|---6---6-6----|
G|---5----5---|---3----3---|---1----1---|---6---5-5----|
D|--6-6--6-6--|--5-5--5-5--|--3-3--3-3--|--4-4---4-4---|
A|------------|------------|------------|-6------------|
E|-4----4-----|-3----3-----|-1----1-----|-------4------|

 (Cause I don't want nobody...)
e|------------|------------|
B|---6----6---|---4----1---|
G|---6----6---|---3----1---|
D|--6-6--5-5--|--5-5--1-1--|
A|-4----4-----|-3----------|
E|------------|------1-----|

 (I swear I'd never...)
e|------------|------------|
B|---6----6---|---4----1---|
G|---6----6---|---3----1---|
D|--6-6--5-5--|--5-5--1-1--|
A|-4----4-----|-3----------|
E|------------|------1-----|

 (Please don't let the...)
e|------1--1---|---44--4---|
B|---1h2---2---|---66--6---|
G|---1------1--|--6---6-6--|
D|--3-----3----|-----------|
A|-1-----1-----|-6---6-----|
E|-------------|-----------|

 (Oooh...)
e|--------------------------------1h4p1-----------------|
B|-----4------3---3-------2---2---2-------2-------------|
G|---3---3----4---4-------1---1-----------1-------------|
D|--------------3---3-------3---3-------3---3-----------|
A|-3----------2-----------1-----------------------------|
E|------------------------------------------------------|


\\\\\\\\\\\\\\\\\\\\\\\\\\\\\\\\\\\\\\\\\\\\\\\\\\\\\\\\\\\\\\\\\\\\\\\\\\\\\\\\
\\\\\\\\\\\\\\\\\\\\\\\\\\\\\\\\\\\\\\\\\\\\\\\\\\\\\\\\\\\\\\\\\\\\\\\\\\\\\\\\
  =BRIDGE=
 (If there's no space in your heart...)
e|-------------------------|
B|---4-----4-----6-----5---|
G|---5-----3-----6-----4---|
D|--6-6---4-4---6-6---6-6--|
A|-------------4-----4-----|
E|-4-----4-----------------|

 (Let's try and make a new start...)
e|-------------------------|
B|---4-----4-----6-----5---|
G|---5-----3-----6-----4---|
D|--6-6---4-4---6-6---6-6--|
A|-------------4-----4-----|
E|-4-----4-----------------|


 (You take the lead, I'll follow you...)
e|---------------------3h6p3-------------------------------|
B|-4-4---4-4---1-1---4-4--------2-2-2-2---2--------2-------|
G|-5-5---3-3---1-1---3------3---1-1-1-1---1------1--1------|
D|--6-6---5-5---3-3---5----------3-3-3-3--3-------3--------|
A|-------------------3----------1---------1------1---------|
E|-4-----3-----1-------------------------------------------|

Back to CHORUS x2

 (Oooh...)                                                       ~
e|--------------------------------1h4p1-----------------|    |---6---|
B|-----4------3---3-------2---2---2-------2-------------|    |---4---|
G|---3---3----4---4-------1---1-----------1-------------|    |---5---|
D|--------------3---3-------3---3-------3---3-----------| x3 |-------| 
A|-3----------2-----------1-----------------------------|    |-------|
E|------------------------------------------------------|    |---4---|

  =END=

************************************

| /   slide up
| \   slide down
| h   hammer-on
| p   pull-off
| ~   vibrato
| +   harmonic
| x   Mute note
| b   Bend
| pb  Pre-bend
| br  Bend release
| pbr Pre-bend release
| brb Bend release bend

************************************
Добавлено: 23.07.2015
Другие материалы по этой песне:
  • Аккорды и текст

Страница создана 23.07.2015
http://primanota.ru/boyz-ii-men/one-more-dance-chords.htm
Привет, Гость.
Предлагаем пройти революционный курс по гитаре.
Подарок от PrimaNota.Ru, забирай!