PrimaNota.ru - самый крупный в мире бесплатный архив песенных текстов, аккордов, табулатур и нот


Boys Night Out - Waking - текст песни, таба, видео

Регистрация Запомнить меня
Войти через:  Facebook Google Twitter Vk Yandex Mail.ru

Boys Night Out - Waking - текст песни, таба, видео

Печатать
Просмотров: 155
x = stop sound
h = hammer on
p = pull off
/ = slide up
\ = slide down
* = palm mute
^ = pinch harmonic


verse 1 - 3 times

guitar1
--------------------------------------------------------16-13---------------------|
--------------------------------------------------------------13-14---------------|
---------------------------------13-15-\-10x--10x--10x----------------------------|
10x--10x--10x--------------15-16---------11x--11x--11x-----------------------13-\-|
11x--11x--11x--------16-15----------------9x---9x---9x--------------13-16-12------|
-8x---8x---8x--15-13--------------------------------------------------------------|

guitar2
----------------------------------------------------------13------------------------|
-----------------------------------13-14-\-------------------14-------11-14---------|
-----------------------------13-15---------10x--10x--10x--------13-15-------14-13-\-|
10x--10x--10x-------13/15-13---------------11x--11x--11x----------------------------|
11x--11x--11x--11-9-------------------------9x---9x---9x----------------------------|
-8x---8x---8x-----------------------------------------------------------------------|

4th time

guitar1
----------------------------------------------------------------------------|
----------------------------------------------------------------------------|
---------------------------------13-15-\-10x--10x--10x----------------------|
10x--10x--10x--------------15-16---------11x--11x--11x--4-4x--3x--11-10-----|
11x--11x--11x--------16-15----------------9x---9x---9x--4-4x--3x--------11--|
-8x---8x---8x--15-13------------------------------------4-4x--3x------------|

guitar2
-----------------------------------------------------------------------------|
-----------------------------------13-14-\-----------------------------------|
-----------------------------13-15---------10x--10x--10x--1010x--8x-10-8-----|
10x--10x--10x-------13/15-13---------------11x--11x--11x--1111x-10x------10--|
11x--11x--11x--11-9-------------------------9x---9x---9x---9-9x--------------|
-8x---8x---8x----------------------------------------------------------------|


chorus - 2 times

guitar1
------------------------------------|
------------------------------------|
--66----8868x-----------------886x--|
8866--668868x-8-\-8844--884477886x--|
8844--666646x-8-\-8844--884488664x--|
88----66------8-\-8844--884477------|

guitar2
------------------------------------------------|
------------------------------------------------|
661010--8888610x-----101088--1313101088111110x--|
xx-x-x--xxxxx-xx-8-\--x-xxx---x-x-x-xxx-x-x-xx--|
44-8-8--66664-8x-8-\--8-866--1111-8-866-9-9-8x--|
-----------------8-\----------------------------|

end chorus

^     both guitars          ^            just guitar 1
---------------------------------------------16------------------------|
------------------------------------------------14-13------------------|
-----------------13x--13x-13-\------------------------13---------------|
6666666----13-15------15x-15-\-10h11---------------------13------------|
6666666-12------------12x-12-\-------8----------------------12-16-13-\-|
6666666--------------------------------11-8\---------------------------|
*******


verse 2 - switched up first verse, 2 times

guitar 1
---------------16-13--------------------------------------------------------------|
---------------------13-14--------------------------------------------------------|
-----------------------------------------10x--10x--10x--------------------13-15-\-|
10x--10x--10x-----------------------13-\-11x--11x--11x--------------15-16---------|
11x--11x--11x--------------13-16-12-------9x---9x---9x--------16-15---------------|
-8x---8x---8x-------------------------------------------15-13---------------------|

guitar 2
---------------13-------------------------------------------------------------------|
------------------14-------11-14--------------------------------------------13-14-\-|
---------------------13-15-------14-13-\-10x--10x--10x----------------13-15---------|
10x--10x--10x----------------------------11x--11x--11x-------13/15-13---------------|
11x--11x--11x-----------------------------9x---9x---9x--11-9------------------------|
-8x---8x---8x-----------------------------------------------------------------------|

prechorus (perfume, her few final moments...)

guitar1
-----------------------------------------------------------------------------|
-----------------------------------------------------------------------------|
-----------------------------------------------------------------------------|
8888888888x-6x-4-44444444444x-4x-4-88888888888x-6x-4-444444444x-3x-11-10-----|
8888888888x-6x-4-44444444444x-4x-4-88888888888x-6x-4-444444444x-3x-------11--|
8888888888x-6x-4-44444444444x-4x-4-88888888888x-6x-4-444444444x-3x-----------|
**********       ***********       ***********       *******

guitar2
--------------------------------------------------------------------------------------|
--------------------------------------------------------------------------------------|
------------10x-11-\-------------11x-11-\-------------10x-11-\-------1010x-8-10-8-----|
8888888888x--xx--x-\-4444444444x--xx--x-\-8888888888x--xx--x-\-444444-x-xx-x------10--|
8888888888x--8x--9-\-4444444444x--9x--9-\-8888888888x--8x--9-\-444444-8-8x-6----------|
8888888888x----------4444444444x----------8888888888x----------444444-----------------|
**********           **********           **********           ******


chorus 4 times, then transition to bridge with:

both guitars
-------|
-------|
-------|
6666666
6666666
6666666
*******


bridge 1 (i cant breathe, i dont deserve to take these breaths...)

GTR1
-----------------------------------------------------------------------|
-------------------------------------------------------------9---------|
10--10--6---------6--6--6--------10--10--6--------8--8/10-----10-------|
11--11--6---------6--6--6--------11--11--6-----------------8-----------|
-8---8--4---------4--4--4---------8---8--4-----------------------------|
-8---8--4---------4--4--4---------8---8--4-----------------------------|

--------------------------------------------------|
-----------------------------9--------------------|
10--10--6---------8--8/10-----10-------10--10--6--|
11--11--6------------------8-----------11--11--6--|
-8---8--4-------------------------------8---8--4--|
-8---8--4-------------------------------8---8--4--|

GTR2

------------------------------------------------------13-----------------------|
-9---9--6--------6--6--6--------------------14---------------------------------|
10--10--6--------6--6--6---------13--13h15----------------13-15-------13-------|
-8---8--4--------4--4--4----------------------------------------11--13---------|
-8---8--4--------4--4--4-------------------------------------------------------|
-8---8--4--------4--4--4-------------------------------------------------------|

----------------------13-----------------------------------7--|
-----------14----------------------------------------------7--|
13--13h15-----------------13-15-------13-------13--13h15---7--|
--------------------------------11--13---------------------7--|
--------------------------------------------------------------|
--------------------------------------------------------------|
                                                           ^


bridge 2 - 3 times (I CANT FEEL!! numb to everythiiiing)

guitar1
----------------------|
----------------------|
----------------------|
88x-8-\-88x-----44x-4-|
88x-8-\-88x-6/8-44x-4-|
88x-8-\-88x-----44x-4-|

guitar2
---------------------------|
---------------------------|
----------------1010x-10-\-|
88x-8-\-88x-4/6--x-xx--x-\-|
88x-8-\-88x------8-8x--8-\-|
88x-8-\-88x----------------|


then,

(i feel my body shutting down as they enter my home)

guitar1
-----------------------|
-----------------------|
-----------------------|
66666666666x-11-10-----|
66666666666x-------11--|
66666666666x-----------|
***********

guitar2
----------------------|
----------------------|
-------------10-8-----|
66666666666x------10--|
66666666666x----------|
66666666666x----------|
***********


then 4 measures of bass


then

guitar1
-------------------------------------------------------------------|
-------------------------------------------------------------------|
--66-\----------------------------66----88688----------------------|
8866-\--------------------------8866--66886888888888844884477------|
8844-\--------------------------8844--66664668888888844884488664-\-|
88------------------------------88----66-----8888888844884477------|
                                      ***********************
guitar2
-------------------------------------------------------------------------|
-------------------------------------------------------------------------|
66-1010-\--------------------------661010-\---88688----------------------|
xx--x-x-\--------------------------xx-x-x-\-66886888888888844884477443-\-|
44--8-8-\--------------------------44-8-8-\-66664668888888844884488------|
--------------------------------------------66-----8888888844884477------|
                                            ***********************


then chorus 4 times, then end with:

both guitars
----------|
----------|
----------|
8888-\----|
8888-\----|
8888-\----|
Добавлено: 29.03.2012
Вам также может быть интересно:
Другие материалы по этой песне:
  • Аккорды и текст

Страница создана 29.03.2012
http://primanota.ru/boys-night-out/waking-chords.htm
Привет, Гость.
Предлагаем пройти революционный курс по гитаре.
Подарок от PrimaNota.Ru, забирай!