PrimaNota.ru - самый крупный в мире бесплатный архив песенных текстов, аккордов, табулатур и нот


Boys Night Out - The Only Honest Love Song - текст песни, таба, видео

Регистрация Запомнить меня
Войти через:  Facebook Google Twitter Vk Yandex Mail.ru

Boys Night Out - The Only Honest Love Song - текст песни, таба, видео

Печатать
Просмотров: 144
~: pinch harmonic 
DROP D TUNING 

listen to the rhythm, because bno are tricky 

Guitar 1: 

Intro:4x 
e|-------------------------------------------------------------| 
B|-------------------------------------------------------------| 
G|-------------------------------------------------------------| 
d|-------------------------------------------------------------| 
A|------6h5------4-3----------3~-----------6-5--------8-7-3--5~| 
D|-0-0-----6h5-0----4-3--0-00----------0-0-----6-5---0-0-0-00--| 

Verse: "the air tears at my skin..." 
4x 
e|--------------------------------------------------------------------------------| 
B|--------------------------------------------------------------------------------| 
G|-----------------55-55-55-55-5555-77-77-77-77-7777-99-99-1212-1212-12121212-----| 
d|-----------------33-33-33-33-3333-55-55-55-55-5555-77-77-1010-1010-10101010-----| 
A|wait while other-33-33-33-33-3333-55-55-55-55-5555-77-77-1010-1010-10101010-----| 
D|guitar plays-----33-33-33-33-3333-55-55-55-55-5555-77-77-1010-1010-10101010-----| 

3x play 4th time 
e|-------------|---------|----------------| 
B|-------------|---------|----------------| 
G|-14-14-12-12-|7-7-7777-|-17171717171515-| 
d|--x--x--x--x-|x-x-xxxx-|--x-x-x-x-x-x-x-| 
A|-12-12-10-10-|5-5-5555-|-15151515151313-| 
D|-------------|---------|----------------| 

Chorus: "now I realize the cowardice..." 
2x 
e|-----------------------------------------------------| 
B|-----------------------------------------------------| 
G|--101010101212-101010101212-10101010-99-109-7779-----| 
d|--x-x-x-x--x-x-x-x-x-x-x-x---x-x-x-x-xx--xx-xxxx-----| 
A|--8-8-8-8-1010-8-8-8-8-1010--8-8-8-8-77--87-5557-----| 
D|-----------------------------------------------------| 

Second Verse: "Im falling down..." 4x 
e|--------------------------------------------------| 
B|--------------------------------------------------| 
G|-99-77-55-4444-5-5-5555-55-7-9---1212-9-7-55-77-9-| 
d|-xx-xx-xx-xxxx-x-x-xxxx-xx-x-x----x-x-x-x-xx-xx-x-| 
A|-77-55-33-2222-3-3-3333-33-5-7---1010-7-5-33-55-7-| 
D|--------------------------------------------------| 

Interlude: "I swear if i could take this knife out of my back..." 
e|--------------------------------------------12--------|-12-----12---|-12----12----12----12----12------| 
B|-----------1---------5-----5--------13--------13------|---13-----13-|---13----13----13----13-----13---| 
G|----4-------4------5--5--5--5-----14--14--------14----|-----14------|-----14----14----14----14-----14-| 
d|--2---2--2---2---7-----7-----7--14-------14---------14|-------------|---------------------------------| 
A|0------0----------------------------------------------|-------------|---------------------------------| 
D|------------------------------------------------------|-------------|---------------------------------| 

CHORUS 
Third Verse: "Im falling down..." 1x 
e|--------------------------------------------------| 
B|--------------------------------------------------| 
G|-99-77-55-4444-5-5-5555-55-7-9---1212-9-7-55-77-9-| 
d|-xx-xx-xx-xxxx-x-x-xxxx-xx-x-x----x-x-x-x-xx-xx-x-| 
A|-77-55-33-2222-3-3-3333-33-5-7---1010-7-5-33-55-7-| 
D|--------------------------------------------------| 

Third Verse Cont'd: 1x 
e|--------------------------------------------| 
B|--------------------------------------------| 
G|-99-77-55-4444-5-5-5555-55-7-9---1212-9-7-5-| 
d|-xx-xx-xx-xxxx-x-x-xxxx-xx-x-x----x-x-x-x-x-| 
A|-77-55-33-2222-3-3-3333-33-5-7---1010-7-5-3-| 
D|--------------------------------------------| 

Outro: "If love existed..." 
wait while other guitar plays, do a pickscrape, then come in with distortion 
e|-------------------------------------------------------------------| 
B|-------------------------------------------------------------------| 
G|-1717171717-1515-1515151515-1414---1919191919-17-17--1414141414-10-| 
d|--x-x-x-x-x--x-x--x-x-x-x-x--x-x----x-x-x-x-x--x--x---x-x-x-x-x-x--| 
A|-1515151515-1313-1313131313-1212---1717171717-15-15--1212121210-8--| 
D|-------------------------------------------------------------------| 


Guitar 2: 
Intro:4x 
e|-------------------------------------------------------------| 
B|-------------------------------------------------------------| 
G|------------------------------5~---------------------------7~| 
d|-------------------------------------------------------------| 
A|------6h5------4-3-----------------------6-5--------8-7-3----| 
D|-0-0-----6h5-0----4-3--0-00----------0-0-----6-5---0-0-0-00--| 

Verse: "the air tears at my skin..." 
1x 
e|--------------------------------------------------------------------------------| 
B|--------------------------------------------------------------------------------| 
G|-----------------55-55-55-55-5555-77-77-77-77-7777-99-99-1212-1212-12121212-----| 
d|00-00-00-00-0000-33-33-33-33-3333-55-55-55-55-5555-77-77-1010-1010-10101010-----| 
A|00-00-00-00-0000-33-33-33-33-3333-55-55-55-55-5555-77-77-1010-1010-10101010-----| 
D|00-00-00-00-0000-33-33-33-33-3333-55-55-55-55-5555-77-77-1010-1010-10101010-----| 

3x play 4th time 
e|-------------|---------|----------------| 
B|-------------|---------|----------------| 
G|-14-14-12-12-|7-7-7777-|-17171717171515-| 
d|--x--x--x--x-|x-x-xxxx-|--x-x-x-x-x-x-x-| 
A|-12-12-10-10-|5-5-5555-|-15151515151313-| 
D|-------------|---------|----------------| 

Chorus: "now i realize the cowardice..." 
e|--------------------------------------------------------------------------------| 
B|--------------------------------------------------------------------------------| 
G|-----------------55-55-55-55-5555-77-77-77-77-7777-99-99-1212-1212-12121212-----| 
d|00-00-00-00-0000-33-33-33-33-3333-55-55-55-55-5555-77-77-1010-1010-10101010-----| 
A|00-00-00-00-0000-33-33-33-33-3333-55-55-55-55-5555-77-77-1010-1010-10101010-----| 
D|00-00-00-00-0000-33-33-33-33-3333-55-55-55-55-5555-77-77-1010-1010-10101010-----| 

Second Verse: 
e|-------------------------------------------------------|---------------| 
B|-------------------------------------------------------|---------------| 
G|-----555--------------99-7-5-1212-109-999-7-5-7-5555555|---------------| 
d|-777-xxx-333-55-2222--xx-x-x--x-x--xx-xxx-x-x-x-xxxxxxx|-7-------------| 
A|-777-333-333-55-2222--77-5-3-1010--87-777-5-3-5-3333333|-7-let it ring-| 
D|-777-----333-55-2222----------------------------3333333|-7-------------| 

Interlude: Play nothing. This is where jeff helps connor scream. 
Chorus 

Third Verse: "im falling down..." 1x 
e|-------------------------------------------------------| 
B|-------------------------------------------------------| 
G|-----555--------------99-7-5-1212-109-999-7-5-7-5555555| 
d|-777-xxx-333-55-2222--xx-x-x--x-x--xx-xxx-x-x-x-xxxxxxx| 
A|-777-333-333-55-2222--77-5-3-1010--87-777-5-3-5-3333333| 
D|-777-----333-55-2222----------------------------3333333| 

Third Verse Cont'd: 1x 
e|---------------| 
B|---------------| 
G|-----555-99-77-| 
d|-777-xxx-xx-xx-| 
A|-777-333-77-55-| 
D|-777-----------| 

Outro: 2x without disortion 3x with distortion "if love existed..." 
e|-------------------------------------------------------| 
B|-------------------------------------------------------| 
G|-5555555555333333--------------------------------------| 
d|-3333333333333333-88888888777777-12121212101010-777753-| 
A|-3333333333333333-55555555555555-88888888888888-555553-| 
D|-3333333333333333-55555555555555-88888888888888-555553-| 

Outro Cont'd: 
e|------------------------------------------------| 
B|------------------------------------------------| 
G|-5555555555333333-------------------------------| 
d|-3333333333333333-88888888777777-12121212101010-| 
A|-3333333333333333-55555555555555-88888888888888-| 
D|-3333333333333333-55555555555555-88888888888888-|
Добавлено: 22.04.2012
Другие материалы по этой песне:
  • Аккорды и текст

Страница создана 22.04.2012
http://primanota.ru/boys-night-out/the-only-honest-love-song-chords.htm
Привет, Гость.
Предлагаем пройти революционный курс по гитаре.
Подарок от PrimaNota.Ru, забирай!