PrimaNota.ru - самый крупный в мире бесплатный архив песенных текстов, аккордов, табулатур и нот


Boys Night Out - The Fine Art Of Making It Out Alive - текст песни, бас-таба, видео

Регистрация Запомнить меня
Войти через:  Facebook Google Twitter Vk Yandex Mail.ru

Boys Night Out - The Fine Art Of Making It Out Alive - текст песни, бас-таба, видео

Печатать
Просмотров: 164
Band: Boys Night Out
Song: The Fine Art Of Making It Out Alive
Album: Make Yourself Sick
Tabbed by: choke383
Normal Tuning: GDAE


G|-------------------------------------------------------------------|
D|--------------------------------------------------------4444-------|
A|------------------------77776666----66664444----66664444----4h6-4--|
E|444444444444444477777777--------0000--------7777-------------------|x2

G|--------------------------------------------------------------------------------------|
D|--------------------------------------------------------------------------------------|
A|--------------------------------------------------------------------------------------|
E|44444444444444447---7-7-0000000000000000000000000000000-0000000000000000000000000000--|


0:35
G|----------------|
D|----------------|
A|----------------|
E|4--44-/8\--0-0--|x3

G|-------------------------------------------|
D|-------------------------------------------|
A|-----------0-0---000000000000000000000000--|
E|4--44-/8\----------------------------------|


0:58
G|-------------------------------------------------|
D|--------------------0h2----0h2-------------------|
A|------------------------44-----222222222-6p4-22--|
E|2-2-444-4-444-555-0------------------------------|x2

G|-------------------------------------------------------|
D|--------------------0h2----0h2-------------------------|
A|------------------------44-----222222222-6p4-----------|
E|2-2-444-4-444-555-0--------------------------0--2-2-2--|


1:25
G|---------------------------------------------------------------------|
D|------------------------------------------------------4h6------------|
A|------------------------777-6-66---666-444-------6h7-----------------|
E|444444444444444477777777--------000---0---7-77-00---00---007h9006h7--|x3

G|---------------------------------------------------------------------------------------|
D|---------------------------------------------------------------------------------------|
A|------------------------777-6-66-------------------------------------------------------|
E|444444444444444477777777--------000000000000000000000000000-0000000000000000000000000--|


2:08
G|------------------------------------------------------------|
D|------4----------------4-----------6h8-6-9-8-6-4------------|
A|----6--6-4---------------6-4---------------------4h6--6-----|
E|44---------7-66--6h7-6-------2-00------------------------2--|x2

G|-------------------------------------------------------------|
D|------4----------------4-----------6h8-6-9-8-6-4-------------|
A|----6--6-4---------------6-4---------------------4h6-6-6-----|
E|444--------7-666-6h7-6-------2-000------------------------2--|x2


2:46
G|----------------------------------------|
D|----------------------------------------|
A|------------------------------0-0--0-0--|
E|4--44-/8\--0-0----------4--44-----------|


2:57
G|-----------------------------------|
D|-----------------------------------|
A|0h2--------------------------------|
E|----0-0-0---2-2-2---4-4-4---4-4-4--|x2

G|-------|
D|-------|
A|--0h2--|
E|-------|


3:17
G|----------------------------------------|
D|--2-1-------4-----------4-----2-1-------|
A|-------2------4--2----2----2------2-----|
E|0---------2---------4----------------4--|x8

G|----|
D|----|
A|----|
E|-0--|



Any comments, questions or jokes send to style444@hotmail.com
Добавлено: 23.02.2012
Другие материалы по этой песне:

Страница создана 23.02.2012
http://primanota.ru/boys-night-out/the-fine-art-of-making-it-out-alive-chords.htm
Привет, Гость.
Предлагаем пройти революционный курс по гитаре.
Подарок от PrimaNota.Ru, забирай!