PrimaNota.ru - самый крупный в мире бесплатный архив песенных текстов, аккордов, табулатур и нот


Boys Night Out - Its Dylan You Know The Drill - текст песни, бас-таба, видео

Регистрация Запомнить меня
Войти через:  Facebook Google Twitter Vk Yandex Mail.ru

Boys Night Out - Its Dylan You Know The Drill - текст песни, бас-таба, видео

Печатать
Просмотров: 151
Band: Boys Night Out
Song: It's Dylan, You Know The Drill
Album: Make Yourself Sick
Tabbed by: choke383
Drop D Tuning: GDAD



G|--------------------------------------------------------------|
D|--0-2-4-------4h5p4-2-0-----2-0-2h4p2-0---0-2-4---------------|
A|2-----------------------4h5-------------2---------------------|
D|--------0---5-----------------------------------0---5-55-4-44-|

G|---------------------|
D|--------2h4p2-0------|
A|4h5p4-0---------(2)--|
D|---------------------|x2 (second time do ( ) )


0:42
G|-----|
D|-----|
A|-----|
D|0-0--|


0:44
G|--------------------------------------------------------------------|
D|-------------------------2h4p2-0---------------------2-2-0-2h4p2p0--|
A|2-22---2-25-0-------------------------4-5-5/7-5-1-11----------------|
D|-----0--------5-55-5-5-5---------4-44-------------------------------|x2


1:03
G|---------------------------------------------|
D|------------2-4--555544222-------------------|
A|222222220000-0-------------------------------|
D|---------------------------4444444--2-2-5-5--|


1:13
G|---------------------------------------------------------|
D|-----------------------2-4-2-0------4h5-2-0-5-4020-------|
A|2-2222----------5-5555---------0-00----------------------|
D|--------0-0-0-0-------------------------------------5-5--|x2


1:30
G|--------------------------------|
D|--------------------------------|
A|2---2-2-------------------------|
D|--------22--22-2--5-5555555555--|


1:38
G|--------------------------------------------------------------------|
D|-------------------------2h4p2-0---------------------2-2-0-2h4p2p0--|
A|2-22---2-25-0-------------------------4-5-5/7-5-1-11----------------|
D|-----0--------5-55-5-5-5---------4-44-------------------------------|

G|------------------------------------------------------------------------|
D|-------------------------2h4p2-0----------------------------------------|
A|2-22---2-25-0-------------------------4-5-5/7-5-1-11-----2222222222222--|
D|-----0--------5-55-5-5-5---------4-44-----------------2-----------------|


1:58
G|----------------------------------------------|
D|---------2--4-5555555444222-------------------|
A|000000000-00----------------------------------|
D|----------------------------44444444-2-2-5-5--|


2:05
G|---------------------------------------------------------|
D|-----------------------2-4-2-0------4h5-2-0-5-4020-------|
A|2-2222----------5-5555---------0-00----------------------|
D|--------0-0-0-0-------------------------------------5-5--|x2


2:23
G|-----------------------------------|
D|---------------------------0-------|
A|2---2-2------------------2---4-----|
D|--------22--22-2--5--5-5-------5-4-|


2:33
G|---------------------------------------------|
D|---------------------------------------------|
A|2-2-2-2-2-2-0-0-0-0-0-0----------------------|
D|------------------------5-5-5-5-5-5-4-4-4-4--|

G|--------2---------4-2------------------------|
D|------4---4---2-------4-------4-5-4-------4--|
A|2-2-2-------0---0----------------------------|
D|------------------------5-5-5-------4-4-4----|


2:50
G|-------------------------------|
D|-------------------------------|
A|--------222222220000000000000--|
D|55555555-----------------------|

G|-------------------------------|
D|-------------------------------|
A|--------2222222200000000-------|
D|55555555----------------44444--|

G|-------------------------------|
D|-------------------------------|
A|--------2---2---0000000000000--|
D|55555555-----------------------|

G|-----------------------------------------|
D|-----------------------------------------|
A|--------2222222200000000-----------------|
D|55555555----------------44444--44444--0--|




Any comments, questions or jokes send to style444@hotmail.com
Добавлено: 09.06.2012
Другие материалы по этой песне:
  • Аккорды и текст

Страница создана 11.05.2012
http://primanota.ru/boys-night-out/its-dylan-you-know-the-drill-chords.htm
Привет, Гость.
Предлагаем пройти революционный курс по гитаре.
Подарок от PrimaNota.Ru, забирай!