PrimaNota.ru - самый крупный в мире бесплатный архив песенных текстов, аккордов, табулатур и нот


Boys Night Out - I Was The Devil For One Afternoon - текст песни, бас-таба, видео

Регистрация Запомнить меня
Войти через:  Facebook Google Twitter Vk Yandex Mail.ru

Boys Night Out - I Was The Devil For One Afternoon - текст песни, бас-таба, видео

Печатать
Просмотров: 142
Artist: Boys Night Out
Song: I Was The Devil For One Afternoon
Album: Make Yourself Sick (2003)
Tuning: Normal (EADG)
Tabbed by Alex Morris

0:00-0:20
G|-----------------------------------------|
D|-----------------------------------------|
A|-----------------------------------------|
E|8-88-8-8-0-8-8/12-000-12-00-12-0-00000000|x2

G|--------------------------------------------------|
D|--------------------------------------------------|
A|--------------------------------------------------|
E|8-88-8-8-0-8-8/10-00-12-00-14-00-15-00-14-00-12h14|

G|-----------------------------------------|
D|-----------------------------------------|
A|-----------------------------------------|
E|8-88-8-8-0-8-8/12-000-12-00-12-0-00000000|


0:20-0:30                                     |   ending 1  |ending 2|
G|--------------------------------------------|-------------|--------|
D|--------------------------------------------|-------------|--------|
A|--------------------------------------------|-------------|--------|
E|2-00-2-00-2-0-4-00-4-00-7p5-12-00-12-00-12-0|2-00-2-00-2-0|2-222222|


0:30-0:50 "I've got a broken neck sense of mortality..."
G|--------2-1---------------------------------------------------------|
D|-------------2-0-2h4----------------------2p0-----------------------|
A|-------------------------------------4-44----4-0-0000000------------|
E|0-00000--------------444-4-4-4444444---------------------2-22-0-2-2-|

G|-------|
D|-------|                 this riff x2
A|-------|
E|2222222|


0:50-1:09 "One day dear..."
G|--------------------------------|   |--------------------------------|
D|--------------------------------|   |--------------------------------|
A|--------------------------5554h5|   |--------------------------55-55-|
E|0-00000-05-55555-52-22222-------|x3 |0-00000-05-55555-52-22222-------|


1:10-1:28
G|--------------------------|
D|2~----7-4h6--4--2--2h4p2~-|
A|----00-0---00-00-00-------|
E|--------------------------|

G|------------------------------------|
D|--7-4h6--4--2--2h4-22222222222222222|
A|00-0---00-00-00---------------------|
E|------------------------------------|

G|-----------------------------------|
D|--7-4h6--4--2--2h4---7--6----4--2--|
A|00-0---00-00-00----00-00-0000-00-00|
E|-----------------------------------|


1:28-1:48 "I've got a broken neck sense of mortality..."
G|--------2-1---------------------------------------------------------|
D|-------------2-0-2h4----------------------2p0-----------------------|
A|-------------------------------------4-44----4-0-0000000------------|
E|0-00000--------------444-4-4-4444444---------------------2-22-0-2-2-|

G|-------|
D|-------|                 this riff x2
A|-------|
E|2222222|


1:48-2:00 "You know dear, I never think things through..."
G|--------------------------------|
D|--------------------------------|
A|--------------------------5554h5|
E|0-00000-05-55555-52-22222-------|

G|-----------------------------------------------|
D|-----------------------------------------------|
A|------------------------------------5p4p0-2-2-0|
E|0-00000-05-55555-5-2222222222222222------------|


2:00-2:20 "I'm doing this for you..."
G|------------------------------------------------------------------|
D|------------------------------------------------------------------|
A|00000000000000000000000000000000-4444444444444444-----------------|
E|--------------------------------------------------2222222222222200|

G|------------------------------------------------------------------|
D|------------------------------------------------------------------|
A|555555555555554h5-7-77777777777777-0000000000000000000000000000000|
E|------------------------------------------------------------------|


2:20-2:43 "There was something in the way you turned and looked at me..."
G|-------2-1-----------------2-1---|
D|---2h4-----2~-0h2-4~---2h4-----2~|
A|---------------------------------|
E|2~-------------------------------|

G|---------------------222111--------------------------|
D|0h2-444444444444442h4------222222220h2-44444444444444|
A|-----------------------------------------------------|
E|-----------------------------------------------------|

G|----2222222222222222-2211------------|
D|2h4----------------------4422--------|
A|-----------------------------224422--|
E|-----------------------------------44|


2:43-end "And i'd give anything..."
G|---------------------------------------------------------------|
D|---------------------------------------------------------------|
A|-------------------------------4444464200000000----------------|
E|0000000000000002444444444444424----------------2222222222222222|x2

End on
G|--|
D|--|
A|--|
E|0~|

That's it, great song by BNO, tab feels pretty good not sure if it's 100%. If you notice 
wrong feel free to fix the tab and resubmit it.
R.I.P. THE FULLBLAST
Добавлено: 02.07.2012
Другие материалы по этой песне:

Страница создана 01.07.2012
http://primanota.ru/boys-night-out/i-was-the-devil-for-one-afternoon-chords.htm
Привет, Гость.
Предлагаем пройти революционный курс по гитаре.
Подарок от PrimaNota.Ru, забирай!