PrimaNota.ru - самый крупный в мире бесплатный архив песенных текстов, аккордов, табулатур и нот


Boys Night Out - Dreaming - текст песни, таба, видео

Регистрация Запомнить меня
Войти через:  Facebook Google Twitter Vk Yandex Mail.ru

Boys Night Out - Dreaming - текст песни, таба, видео

Печатать
Просмотров: 169
“Dreaming”
Boys Night Out
Trainwreck
Tabbed by: Tim Berg
Email: oice4@yahoo.com
www.myspace.com/oice


Tuning: Drop D
Legend:
| /  slide up
| \  slide down
| h  hammer-on
| p  pull-off
| ~  let ring
| x (under note) palm muted
| x  (in staff) pick scrape string
| … strum chord for entire measure


e|----------------------------|
B|----------------------------|
G|----------------------------|
D|----------------------------|
A|--------6-------------------|
D|--8--5-----9-7h9------------|

Verse Part One
e|------------------------------------|
B|------------------------------------|
G|------------------------------------|
D|---2---2…----/---9--9---9-----999---|
A|---2---2…----/---9--9---9-----999---|
D|---2---2…----/---9--9---9-----999---|
         x
e|-------------------------------------------------------|
B|-------------------------------------------------------|
G|-------------------------------------------------------|
D|---0--2-2---2…--/--0--0—9p0-7h9p7p0-7p0-5p0-9p7p0------| x2
A|---0--2-2---2…--/--------------------------------------|
D|---0--2-2---2…--/--------------------------------------|
               x

Verse Part Two
e|-------------------------------------------------------------------------|
B|----------------------------------------------------------------------3…-|
G|----------------------------------------------------------------------2…-|
D|---2---2…--2-2--2-2--/---9----------------------------5-------7-9p7p0-0…-|
A|---2---2…--2-2--2-2--/---9--9--5-----9-7-5---------9----5--7----------0…-|
D|---2---2…--2-2--2-2--/---9--------9--------5-4--2---------------------0…-|
         x   x    x

Pre-Chorus "tonight, it's worse" (each hit is notated)
e|------0-------------------0~------0-------------------------|
B|------0--3-------------3--0~------0--3-------------3--------|
G|-xxxx-x--2--4~------4--2--x~------x--2--4~------4--2--------|
D|-xxxx-2--0--4~------4--0--2~------2--0--4~------4--0--4~----|
A|-xxxx-2--0--2~------2--0--2~------2--0--2~------2--0--4~----|
D|-xxxx-2--0-------------0--2~------2--0-------------0--4~----|

e|-------------------------------|
B|-------------------------------|
G|-----------------------------4-|
D|-----------------------4--2--4-|
A|---------------4--5-4--4--0--2-|
D|-/-12-\--4--7----------4-------|

Chorus
e|-------------------------------------------|
B|----------------------3--------------------|
G|-4…------2…-----------2------------2----4--|
D|-4…--4…--2…---xxx-xxx-0-xxx-xxx-4--2-0--4--| x2
A|-2…--4…--0…---xxx-xxx-0-xxx-xxx-4--0-0--2--|
D|-----4…-------xxx-xxx-0-xxx-xxx-4----0-----|

interlude 1 (needs two guitars, one for sustained power chords)
e|--------------------------------------------------------------|
B|--------------------------------------------------------------|
G|-4~------7-9~------------7-9/11-9\7-----------7-9~------------|
D|-4~--7-9--------2~---7-9--------------5~--7-9------5--5-5--5--|
A|-2~-------------2~--------------------5~-----------5--5-5--5--|
D|----------------2~--------------------5~-----------5--5-5--5--|
                                                        x x
verse part three "this coma kiss is infinite"
e|-----------------|          e|----| 
B|-----------------|          B|----|
G|-----4…----------|          G|----|  
D|-2…--4…--2…--5…--| x2 then  D|-2~-| (bass solo)
A|-2…--2…--2…--5…--|          A|-2~-|
D|-2…------2…--5…--|          D|-2~-|

repeat "verse part two" 1x

Pre-Chorus 1x
(pause)
Chorus 3x

interlude 2
e|-----------------------|-----------|-----------------|
B|-----------------------|------3…---|-----------------|
G|-4~--------------xxxx--|------4…---|-----------xxx-2-|
D|-4~--2~--5~--5~--xxxx--|------4…---|--4--4--4--xxx-2-|
A|-2~--2~--5~--5~--xxxx--|--0h2-2…---|--4--4--4--xxx-0-|
D|-----2~--5~--5~--xxxx--|-----------|--4--4--4--------|
                            ^ x3 ^

"I see her hair spread across the floor"
e|---------------------------------------------|---|-----|
B|---------------------------------------------|---|-----|
G|-4-4-4----------2-----------------2--4-----4-|---|-2-4-|
D|-4-4-4--2-2---4-2--4--2--2-2-xxxx-2--4--0--4-|x4-|-2-4-|
A|-2-2-2--2-2---4-0--4--2--2-2-xxxx-0--2--0--2-|---|-0-2-|
D|--------2-2---4----4--2--2-2-xxxx-------0----|---|-----|

outro (instrumental)
e|----------------------------------------------------------------|
B|----------------------------------------------------------------|
G|---------------------7----7-9-----------------------------------|
D|-2---5--7--4--2---9------------2---5--5-----2-------------9-7-9-| x2
A|-2------------2--------9-------2---------7--2--------6----------|
D|-2------------2----------------2------------2---8--5------------|

solo (with above part still playing)
e|-14-15-14-15--19-----14-15-14-15--17------17-15-14----|
B|-----------------17-------------------15-----------15-|
G|------------------------------------------------------|
D|------------------------------------------------------|
A|------------------------------------------------------|
D|------------------------------------------------------|

e|--------------12--------------------12------------------|
B|-12-15-12-15------12---12-15-12-15------12--12----------|
G|-----------------------------------------------14-12----|
D|-----------------------------------------------------12-|
A|--------------------------------------------------------|
D|--------------------------------------------------------|

enjoy
Добавлено: 11.06.2012
Другие материалы по этой песне:
  • Аккорды и текст

Страница создана 30.05.2012
http://primanota.ru/boys-night-out/dreaming-chords.htm
Привет, Гость.
Предлагаем пройти революционный курс по гитаре.
Подарок от PrimaNota.Ru, забирай!