PrimaNota.ru - самый крупный в мире бесплатный архив песенных текстов, аккордов, табулатур и нот


The Boys Next Door - Friends Of My World - аккорды и текст, видео

Регистрация Запомнить меня
Войти через:  Facebook Google Twitter Vk Yandex Mail.ru

The Boys Next Door - Friends Of My World - аккорды и текст, видео

Печатать
Просмотров: 121
Friends Of My World
The Boys Next Door
Song: Friends of my World
Band: The Boys Next Door
Album: Door, Door
Year: 1979
Tabber: beranger80@hotmail.com



Intro (0:00)

     A                 F                   G
e|------------------|------------------||---------------------------|
b|-----5------------|----5-------------||---------------------------|
g|.--2----2--2-4-5--|--2----2--2-4-5--.||--5-4--0--0-2-0-2-0-2-0-2--|
d|.-----------------|-----------------.||---------------------------|
a|------------------|------------------||---------------------------|
e|------------------|------------------||---------------------------|
                                     x2



Verse (0:15)

A                                   D
On this side of the divided room the light grows thin
Bb                      D
My world trembles with the sounds of them
A                                D
They move through the night, they run like fugitives
Bb                     D
Escaping with only just their lives



Chorus (0:34)

A                  G
You're friends of my world
You're brides and grooms
           F
Much too soon
                     D
You're friends of my world
You pay as you go
              A
You're in my show



Bridge (0:44)

     A                 F                   G
e|------------------|------------------||---------------------------|
b|-----5------------|----5-------------||---------------------------|
g|.--2----2--2-4-5--|--2----2--2-4-5--.||--5-4--0--0-2-0-2-0-2-0-2--|
d|.-----------------|-----------------.||---------------------------|
a|------------------|------------------||---------------------------|
e|------------------|------------------||---------------------------|
                                     x2



Verse (0:58)

A                                     D
On this side of the divided room the light grows dim
Bb                             D
In next to no time we're all involved again
A                 D
And science takes another man
    Bb                               D
Too frail and scared to know what has possessed him



Chorus (1:18)

A                     G
You're friends of my world
You're this and that
           F
Mud on the doormat
                     D
You're friends of my world
You came as you are
                A
You left in my car



Bridge (1:28)

     A                 F                   G
e|------------------|------------------||---------------------------|
b|-----5------------|----5-------------||---------------------------|
g|.--2----2--2-4-5--|--2----2--2-4-5--.||--5-4--0--0-2-0-2-0-2-0-2--|
d|.-----------------|-----------------.||---------------------------|
a|------------------|------------------||---------------------------|
e|------------------|------------------||---------------------------|
                                     x2



Bridge (1:42)

D                F
Oh baby you are so divine
G                   D
Across the desert, across the line
D                    F
And the Sphinx that lies in Egypt's view
G                  D     C    D
That's a friend of my world too



Outro (2:07)

     A                 F                   A
e|------------------|------------------||-----|
b|-----5------------|----5-------------||--2--|
g|.--2----2--2-4-5--|--2----2--2-4-5--.||--2--|
d|.-----------------|-----------------.||--2--|
a|------------------|------------------||--0--|
e|------------------|------------------||-----|
    A friend of my world too         x6
Добавлено: 04.11.2015
Другие материалы по этой песне:
  • Аккорды и текст

Страница создана 04.11.2015
http://primanota.ru/boys-next-door/friends-of-my-world-chords.htm
Привет, Гость.
Предлагаем пройти революционный курс по гитаре.
Подарок от PrimaNota.Ru, забирай!