PrimaNota.ru - самый крупный в мире бесплатный архив песенных текстов, аккордов, табулатур и нот


Boyce Avenue - Stay - таба, видео

Регистрация Запомнить меня
Войти через:  Facebook Google Twitter Vk Yandex Mail.ru

Boyce Avenue - Stay - таба, видео

Печатать
Просмотров: 125
Stay - Boyce Avenue
Tabbed by: Kingsley

Tuning: Half Step Down

Tabbed this before Boyce Avenue uploaded a video for this cover,
so everything here is by ear. If you happen to find any mistakes
please leave a correction so I can fix it. Thanks :)


Intro/Verse:
e|-----------------0-----------0-----------0-----|
B|-------1-------1---1-------1---1-------1---1---|
G|-----0---5---2-------0---2-------0---2-------0-|
D|---2-----3-2---------0-2---------0-2---------0-| x6
A|-3---------0-----------0-----------0-----------|
E|-----------------------------------------------|

Pre-Chorus:
e|-----------------------0-----------0-----|
B|-------1-------1-----1---1-------1---1---|
G|-----2-------0-----2-------0---2-------0-|
D|---3-------2-----2---------0-2---------0-|
A|---------0-------0-----------0-----------|
E|-1---------------------------------------|

e|-------------------------------|
B|-------1-------1-------1-------|
G|-----2-------0-------0---0-----|
D|---3-------2-------0-------0---|
A|---------0---------------------|
E|-1---------------3-----------3-|

Chorus:
e|-------0-----------1-----------0-----------1-----|
B|-----1---1-------3---3-------1---1-------1---1---|
G|---0-------0---2-------2---2-------2---2-------2-|
D|-------------0-----------------------------------| x2
A|-3-----------------------0-----------3-----------|
E|-------------------------------------------------|

e|-----------------0-----------0-----------0-----|
B|-------1-------1---1-------1---1-------1---1---|
G|-----0---5---2-------0---2-------0---2-------0-|
D|---2-----3-2---------0-2---------0-2---------0-|
A|-3---------0-----------0-----------0-----------|
E|-----------------------------------------------|

Verse:
e|-----------------0-----------0-----------0-----|
B|-------1-------1---1-------1---1-------1---1---|
G|-----0---5---2-------0---2-------0---2-------0-|
D|---2-----3-2---------0-2---------0-2---------0-| x2
A|-3---------0-----------0-----------0-----------|
E|-----------------------------------------------|

Pre-Chorus:
e|-----------------------0-----------0-----|
B|-------1-------1-----1---1-------1---1---|
G|-----2-------0-----2-------0---2-------0-|
D|---3-------2-----2---------0-2---------0-|
A|---------0-------0-----------0-----------|
E|-1---------------------------------------|

e|-------------------------------|
B|-------1-------1-------1-------|
G|-----2-------0-------0---0-----|
D|---3-------2-------0-------0---|
A|---------0---------------------|
E|-1---------------3-----------3-|

Chorus:
e|-------0-----------1-----------0-----------1-----|
B|-----1---1-------3---3-------1---1-------1---1---|
G|---0-------0---2-------2---2-------2---2-------2-|
D|-------------0-----------------------------------| x2
A|-3-----------------------0-----------3-----------|
E|-------------------------------------------------|

e|-----------------0-----------0-----------0-----|
B|-------1-------1---1-------1---1-------1---1---|
G|-----0---5---2-------0---2-------0---2-------0-|
D|---2-----3-2---------0-2---------0-2---------0-|
A|-3---------0-----------0-----------0-----------|
E|-----------------------------------------------|

Bridge:
e|---------------------------------------------------------|
B|-------1-------------1-------------1-------------1-------|
G|-----2---2---2-----2---2---2---2-----2---2-----2---2---2-|
D|---3-------3-----2-------2---2---2-----2-----2-------2---| x3
A|---------------0-------------0-------------0-------------|
E|-1-------------------------------------------------------|

e|-------------------------------------------|
B|-------1-------------1-------------1-------|
G|-----2---2---2-----2---2---2-----0---0-----|
D|---3-------3-----2-------2-----0-------0---|
A|---------------0---------------------------|
E|-1---------------------------3-----------3-|

Chorus:
e|-------0-----------1-----------0-----------1-----|
B|-----1---1-------3---3-------1---1-------1---1---|
G|---0-------0---2-------2---2-------2---2-------2-|
D|-------------0-----------------------------------| x2
A|-3-----------------------0-----------3-----------|
E|-------------------------------------------------|

e|-------0-------------1-------------0-------------1-------|
B|-----1---1---1-----3---3---3-----1---1---1-----1---1---1-|
G|---0-------0-----2-------2-----2-------2-----2-------2---|
D|---------------0-----------------------------------------| x2
A|-3---------------------------0-------------3-------------|
E|---------------------------------------------------------|

Outro:
e|------------|
B|-1--3--1----|
G|------------|
D|----0-----3-|
A|-3-----0----|
E|----------1-|
Добавлено: 04.11.2013
Другие материалы по этой песне:
  • Аккорды и текст

Страница создана 04.11.2013
http://primanota.ru/boyce-avenue/stay-chords.htm
Привет, Гость.
Предлагаем пройти революционный курс по гитаре.
Подарок от PrimaNota.Ru, забирай!