PrimaNota.ru - самый крупный в мире бесплатный архив песенных текстов, аккордов, табулатур и нот


Boyce Avenue - Mr Brightside - текст песни, таба, видео

Регистрация Запомнить меня
Войти через:  Facebook Google Twitter Vk Yandex Mail.ru

Boyce Avenue - Mr Brightside - текст песни, таба, видео

Печатать
Просмотров: 306
Mr. Brightside  
Tab By: Vhokie Cantada
Tuning - C-G-C-G-A-D (Boyceavenue Cover)

Dedicated to : Penny Faye Blas 

INTRO

(Palm Mute)
D|----------0-------------------0-----------|
A|------------5-------------------5---------|
G|------5-------5-----------5-------5-------|
C|----4---4-----—-4-------4---4-------4-----|
G|--5-------------------4-------------------|
C|------------------------------------------|

(Palm Mute)
D|----------0-------------------0-----------|
A|------------5-------------------5---------|
G|------5-------5-----------5-------5-------|
C|----4---4-----—-4-------4---4-------4-----|
G|------------------------------------------|
C|--5-------------------5-------------------|



VERSE
 
(Palm Mute)
D|----------0-------------------0-----------|
A|------------5-------------------5---------|
G|------5-------5-----------5-------5-------|
C|----4---4-----—-4-------4---4-------4-----|
G|--5-------------------4-------------------|
C|------------------------------------------|

(Palm Mute)
D|----------0-------------------0-----------|
A|------------5-------------------5---------|
G|------5-------5-----------5-------5-------|
C|----4---4-----—-4-------4---4-------4-----|
G|------------------------------------------|
C|--5-------------------5-------------------|

(Palm Mute)
D|----------0-------------------0-----------|
A|------------5-------------------5---------|
G|------5-------5-----------5-------5-------|
C|----4---4-----—-4-------4---4-------4-----|
G|--5-------------------4-------------------|
C|------------------------------------------|


D|-----------------|
A|-----------------|
G|-----------------|
C|-----------------|
G|-----------------|
C|--5(Pause)-------|



(Normal Plucking)
D|----------0-------------------0-----------|
A|------------5-------------------5---------|
G|------5-------5-----------5-------5-------|
C|----4---4-----—-4-------4---4-------4-----|
G|--5-------------------4-------------------|
C|------------------------------------------|

D|----------0-------------------0-----------|
A|------------5-------------------5---------|
G|------5-------5-----------5-------5-------|
C|----4---4-----—-4-------4---4-------4-----|
G|------------------------------------------|
C|--5-------------------5-------------------|

D|----------0-------------------0-----------|
A|------------5-------------------5---------|
G|------5-------5-----------5-------5-------|
C|----4---4-----—-4-------4---4-------4-----|
G|--5-------------------4-------------------|
C|------------------------------------------|

D|----------0-------------------0-----------|
A|------------5-------------------5---------|
G|------5-------5-----------5-------5-------|
C|----4---4-----—-4-------4---4-------4-----|
G|------------------------------------------|
C|--5-------------------5-------------------|


REFRAIN

D|----------0-------------------0-----------|
A|------3-----3-------------3-----3---------|
G|--------------0-------------------0-------|
C|----4---4-----—-4-------4---4-------4-----|
G|--2-------------------2-------------------|
C|------------------------------------------|


D|----------0-------------------0-----------|
A|------3-----3-------------3-----3---------|
G|--------------0-------------------0-------|
C|----2---2-----—-2-------2---2-------2-----|
G|--4-------------------4-------------------|
C|------------------------------------------|

D|----------0-------------------0-----------|
A|------------5-------------------5---------|
G|------5-------5-----------5-------5-------|
C|----0---0-----—-0-------0---0-------0-----|
G|------------------------------------------|
C|--5-------------------5-------------------|


D|----------0-------------------0-----------|
A|------------5-------------------5---------|
G|------5-------5-----------5-------5-------|
C|----0---0-----—-0-------0---0-------0-----|
G|------------------------------------------|
C|--5-------------------5-------------------|


D|----------0-------------------0-----------|
A|------3-----3-------------3-----3---------|
G|--------------0-------------------0-------|
C|----4---4-----—-4-------4---4-------4-----|
G|--2-------------------2-------------------|
C|------------------------------------------|


D|----------0-------------------0-----------|
A|------3-----3-------------3-----3---------|
G|--------------0-------------------0-------|
C|----2---2-----—-2-------2---2-------2-----|
G|------------------------------------------|
C|--4-------------------4-------------------|

Strum
D|---------------|
A|---3-3-3--3----|
G|---------------|
C|--------------—|
G|---------------|
C|---5-5-5--5----| 8x (Strum part)


Chorus:
Strumming

  Jealousy..      Turning..     Into..         Turning..
D|---2------------0---------------0-------------0------------|
A|---3------------3---------------3-------------5------------|
G|---0------------0---------------0-------------0------------|
C|---0------------0---------------4-------------7------------|
G|---0------------0---------------2-------------0------------|
C|----------------5------------------------------------------|

    Lullaby..     Choking..       Alibi..       But..
D|---2------------0---------------0-------------0------------|
A|---3------------3---------------3-------------5------------|
G|---0------------0---------------0-------------0------------|
C|---0------------0---------------4-------------7------------|
G|---0------------0---------------2-------------0------------|
C|----------------5------------------------------------------|

    Price..      Destiny..       Calling..      Open..
D|---2------------0---------------0-------------0------------|
A|---3------------3---------------3-------------5------------|
G|---0------------0---------------0-------------0------------|
C|---0------------0---------------4-------------7------------|
G|---0------------0---------------2-------------0------------|
C|----------------5------------------------------------------|

    E-a-g-e-r    E-y-e-s            Coz..       Brigthside..
D|---2------------0---------------0-------------0------------|
A|---3------------3---------------3-------------5------------|
G|---0------------0---------------0-------------0------------|
C|---0------------0---------------4-------------7------------|
G|---0------------0---------------2-------------0------------|
C|----------------5------------------------------------------|


D|---2------------0---------------0-------------0------------|
A|---3------------3---------------3-------------5------------|
G|---0------------0---------------0-------------0------------|
C|---0------------0---------------4-------------7------------|
G|---0------------0---------------2-------------0------------|
C|----------------5------------------------------------------|


Adlib Part

D|-------------5---------------------------------------------|
A|--7-7-8-10-8---8-7-7-7-8-7-5-3-2-3-------------------------|
G|-----------------------------------------------------------|
C|---0-0-0--0------------------------------------------------|
G|----------------------------0-0-0-0------------------------|
C|------------5-5-5-5-9-9-9-9--------------------------------| 2x


Last Part

Strumming

   I never..  
D|---2------------0---------------0-------------0------------|
A|---3------------3---------------3-------------5------------|
G|---0------------0---------------0-------------0------------|
C|---0------------0---------------4-------------7------------|
G|---0------------0---------------2-------------0------------|
C|----------------5------------------------------------------|


   I never..  
D|---2------------0---------------0-------------0------------|
A|---3------------3---------------3-------------5------------|
G|---0------------0---------------0-------------0------------|
C|---0------------0---------------4-------------7------------|
G|---0------------0---------------2-------------0------------|
C|----------------5------------------------------------------|


   I never..  
D|---2------------0---------------0-------------0------------|
A|---3------------3---------------3-------------5------------|
G|---0------------0---------------0-------------0------------|
C|---0------------0---------------4-------------7------------|
G|---0------------0---------------2-------------0------------|
C|----------------5------------------------------------------|


   I never..  
D|---2------------0---------------0-------------0-----0-----0----|
A|---3------------3---------------3-------------5-----3-----2----|
G|---0------------0---------------0-------------0-----0-----0----|
C|---0------------0---------------4-------------7-----5-----2----|
G|---0------------0---------------2-------------0-----0-----0----|
C|----------------5----------------------------------------------|

This Is My First Tab. Pls. Rate.
Добавлено: 15.04.2012
Другие материалы по этой песне:

Страница создана 08.04.2012
http://primanota.ru/boyce-avenue/mr-brightside-chords.htm
Привет, Гость.
Предлагаем пройти революционный курс по гитаре.
Подарок от PrimaNota.Ru, забирай!