PrimaNota.ru - самый крупный в мире бесплатный архив песенных текстов, аккордов, табулатур и нот


Boyce Avenue - More Things To Say - текст песни, таба, видео

Регистрация Запомнить меня
Войти через:  Facebook Google Twitter Vk Yandex Mail.ru

Boyce Avenue - More Things To Say - текст песни, таба, видео

Печатать
Просмотров: 236
This song has a weird tuning, yes, that's how its done :) that's just boyce avenue's way 
it difficult on me.

Intro/Verse 1: x3

D|---------------------------------0-----0-------|
A|----------0----------0-------2^0---------4^0---|
G|--------0----------0---------------------------|
D|----0^4--------0^4---------4---------4---------|
A|-------------------------2---------0-----------|
D|--5----------5---------------------------------|

Prechorus 1: x1

D|--------------------------------------------------|
A|----------0----------0----------0-----------------|
G|--------0----------0----------0----------0------0-|
D|----0^4--------0^4--------0^4--------0^4----0^4---|
A|--------------------------------------------------|
D|--5----------0----------5----------0------2-------|

D|--------------------------------------------------------|
A|----------0----------0-------0--------------------------|
G|--------0----------0----------------------------0-------|
D|----0^4--------0^4---------4------0^4---0^4---4---------|
A|-------------------------2------0-----------------------|
D|--5----------5------------------------0-----2------2----|

Chorus 1: x2

D|-0----0----0----0--0-|
A|-0----0----0----0--0-|
G|-2----2----0----2--0-|
D|-0----2----4----0--2-|
A|-2----0----5----0--0-|
D|-x----x----5----0--2-|

Verse 2: x3

D|-----------------------------------------------0-------------0--------|
A|------------0----------------0-----------2---2---2-------2-----2---2--|
G|------0---0---0--------0---0---0-------2---2-------2---2---2-----2----|
D|----4---4-------4----4---4-------4------------------------------------|
A|-------------------------------------2---------------0----------------|
D|--5----------------5--------------------------------------------------|

Prechorus 2: x1

D|---------------------------------------------------------------------|
A|------------0----------------0----------------0------------0-------0-|
G|------0---0---0--------0---0---0--------0---0---0--------0-------0---|
D|----4---4-------4----4---4-------4----4---4-------5----4-------0-----|
A|---------------------------------------------------------------------|
D|--5----------------0----------------5----------------0-------2-------|

D|-----------------------------------|
A|-----------0----------------0------|
G|-----0---0---0--------0---0---0----|
D|---4---4-------4----4---4-------4--|
A|-----------------------------------|
D|-5----------------5----------------|

D|--------0-------0-------0------0----|
A|------0-------0-------0------0------|
G|------------------------------------|
D|----4-------4-------4------4-----4--|
A|--2-------0-------------------------|
D|------------------0------2----------|

Chorus 2: part 1 x2, part 2 x2

D|-0----0----0----0--0-|-0----0----0----0--0-|
A|-0----0----0----0--0-|-0----0----0----0--0-|
G|-2----2----0----2--0-|-2----2----0----2--0-|
D|-0----2----4----0--2-|-2----0----4----0--2-|
A|-2----0----5----0--0-|-0----2----5----0--0-|
D|-x----x----5----0--2-|-x----x----5----0--2-|

Solo (Bridge): x1

D|----------0-2-2/4----------<12>-----------0^2-0-----5-4-2------|
A|------0^2--------------<12>----<12>-----2-----------------5/2--|
G|---------------------------------------------------------------|
D|--2-2-------------0-0------------------------------------------|
A|------------------------------------2-2----------0-------------|
D|---------------------------------------------------------------|

D|---------0-7--------0-0-----0-------------------------|
A|-----0^2-----9----------4-4----2-4-2-0----------------|
G|---------------------------------------0--------------|
D|-2-2-------------------------------------4--0---0-2-0-|
A|----------------2-2------------0----------------------|
D|-----------------------------------------0------------|

D|----------0^2 2/4----------0^2^0---------0^2^0-2^4/5/4-2-0-----------0-7---|
A|------0^2--------------0^2-------2---0^2-------------------4-2---0^2-----9-|
G|---------------------------------------------------------------------------|
D|--2-2--------------------------------------------------------2-2-----------|
A|---------------------------------2-2-----------0---------------------------|
D|-------------------0-0-----------------------------------------------------|

D|-----0-0-----0--0--------------------------|
A|---------4-4------4-2-0--------------------|
G|------------------------0------------------|
D|--------------------------4-2--2-2/4-2-2^4-|
A|----------------------------0--------------|
D|-9-9--------------5-5----------------------|

Prechorus 3: x1

D|-0----0---0-x--|
A|-0----0---0-x--|
G|-2----0---0-x--|
D|-0----4---4-x--|
A|-2----5---5-x--|
D|-x----5---5-x--|

Chorus 3: part 1 x2, part 2 x4

D|-0----0----0----0--2-|-0----0----0----0--2-|
A|-0----0----0----0--0-|-0----0----0----0--0-|
G|-2----2----0----2--0-|-2----2----0----2--0-|
D|-0----2----4----0--2-|-2----0----4----0--2-|
A|-2----0----5----0--0-|-0----2----5----0--0-|
D|-x----x----5----0--2-|-x----x----5----0--2-|

Outro: part 1 x2, part 2 x1

D|---------------------------------------------0--------------0-------|-0-|
A|-----------0----------------0----------2---2---2--------2-----2---2-|-0-|
G|-----0---0---0--------0---0---0------2---2-------2----2---2-----2---|-0-|
D|---4---4-------4----4---4-------4-----------------------------------|-4-|
A|-----------------------------------2----------------0---------------|-5-|
D|-5----------------5-------------------------------------------------|-5-|


and there you have it.
Добавлено: 15.04.2012
Другие материалы по этой песне:
  • Аккорды и текст

Страница создана 15.04.2012
http://primanota.ru/boyce-avenue/more-things-to-say-chords.htm
Привет, Гость.
Предлагаем пройти революционный курс по гитаре.
Подарок от PrimaNota.Ru, забирай!