PrimaNota.ru - самый крупный в мире бесплатный архив песенных текстов, аккордов, табулатур и нот


Boyce Avenue - Im Not The Only One - аккорды и текст, видео

Регистрация Запомнить меня
Войти через:  Facebook Google Twitter Vk Yandex Mail.ru

Boyce Avenue - Im Not The Only One - аккорды и текст, видео

Печатать
Просмотров: 218
Im Not The Only One
Boyce Avenue
I'm Not The Only One -  Sam Smith (Boyce Avenue acoustic cover)
https://www.youtube.com/watch?v=oQq9vDU4IfU

Tuning: standard
intro
e-x----------------------|
b-x----------------------|
g-1---2-2--3-3---5--8----|   3X
d-1h3-1-1--3-3---5--8----|
a-1---1-1--x-x--3---6----|
E-x--------3-3-----------|

e--------------------|
b--------------------|
g-1---2-1-1-1-1---8--|
d-1h3-1-3-1-3-3---8--|
a-1---1-1-1-1-1---6--|
E--------------------|


[Verse 1]
e-x------------------    e-x------------------|
b-x------------------    e-x------------------|
g-1---2-2--3-3---5--8    g-1---2-2--3-3-----8-|
d-1h3-1-1--3-3---5--8    d-1h3-1-1--3-3-----8-|
a-1---1-1--x-x---3--6    a-1---1-1--x-x-----6-|
E-x--------3-3-------    E-x--------3-3-------|
Fsus4/A#   Gm7   C  D#    Fsus4/A#  Gm7     D#

Fsus4/A#   Gm7            C         D#
     You and me we made a vow
Fsus4/A#   Gm7            C         D#
     For better or for worse
Fsus4/A#    Gm7                 Dm          Bb
     I can't believe you let me down
      Fsus4/A#               Gm7      D#
  But the proof is in the way it hurts
Fsus4/A#   Gm7              C           D#
      For months on end I've had my doubts
Fsus4/A#    Gm7        C      D#
      Denying every tear
Fsus4/A#    Gm7               C        D#
      I wish this would be over now
       Fsus4/A#           Gm7        D#
   But I know that I still need you here


[Chorus]
Fsus4/A# Gm7   C   D#
  You say   I'm crazy
    Fsus4/A#              Gm7             C    D#
Cause you don't think I know what you've done
Fsus4/A# Gm&    C      D#
But when  you call me baby
  Fsus4/A#            Gm7   D#
I know I'm not the only one

[Verse 2]
Fsus4/A#       Gm7        C      D#
    You've been so unavailable
Fsus4/A# Gm7         C         D#
    Now sadly I know why
Fsus4/A#    Gm7           C     D#
   Your heart is unobtainable
     Fsus4/A#        Gm7           D#
Even though Lord knows you have mine

[Chorus]
Fsus4/A# Gm7   C   D#
  You say   I'm crazy
    Fsus4/A#              Gm7             C    D#
Cause you don't think I know what you've done
Fsus4/A# Gm&    C      D#
But when  you call me baby
  Fsus4/A#            Gm7   D#
I know I'm not the only one

[Bridge]
D#                   Fsus4/A#
   I have loved you for many years
Gm7                    C
Maybe I am just not enough
D#                          Fsus4/A#
   You've made me realise my deepest fear
    Gm7                  C
By lying and tearing us up

e-x-----------------      e---------------------|
b-x-----------------      b---------------------|
g-1---2-2--3-3---5--8 3X g-1---2-1-1-1-1---8----|
d-1h3-1-1--3-3---5--8     d-1h3-1-3-1-3-3---8---|
a-1---1-1--x-x--3---6     a-1---1-1-1-1-1---6---|
E-x--------3-3------      E---------------------|

[Chorus]
Fsus4/A# Gm7   C   D#
  You say   I'm crazy
    Fsus4/A#              Gm7             C    D#
Cause you don't think I know what you've done
Fsus4/A# Gm&    C      D#
But when  you call me baby
  Fsus4/A#            Gm7   D#
I know I'm not the only one


*Its a mess i know.*
Добавлено: 06.10.2015
Другие материалы по этой песне:
  • Аккорды и текст

Страница создана 06.10.2015
http://primanota.ru/boyce-avenue/im-not-only-one-chords.htm
Привет, Гость.
Предлагаем пройти революционный курс по гитаре.
Подарок от PrimaNota.Ru, забирай!