PrimaNota.ru - самый крупный в мире бесплатный архив песенных текстов, аккордов, табулатур и нот


Boyce Avenue - Brianne - таба, видео

Регистрация Запомнить меня
Войти через:  Facebook Google Twitter Vk Yandex Mail.ru

Boyce Avenue - Brianne - таба, видео

Печатать
Просмотров: 218
Уроки эстрадного вокала в Санкт-Петербурге
So I recently threw up a cover of myself playing this song on youtube, and I have 
many requests for tabs on this.  I think everyone should bug Alejandro to tab it out, so you 
get a more precise tab.  I am not some virtuoso guitarist, so I don't think my tab 
is 100% correct.

Intro: (play 2x)
e------------------------------|
B---1---1---1---1---1---1---1--|
G--0-0-0-0-0-0-0-0-0-0-0-0-0-0-|
D------------------------------|
A-3---3---3---0---0---2---2----|
E------------------------------|

(Strum)
e-0--3--0-----3--3--3--0----0--0--|
B-1--1--1-----1--1--1--1----1--1--|
G-0--0--0^2---0--0--0--0^2--0--0--|
D-2--0--3-----0--2--0--3----2--0--|
A-0--0--3-----0--0--0--3----3--2--|
E-x--3--x-----3--x--3--x----x--x--|

Verse:
e-3--3--0---3--|
B-1--1--1---1--|
G-0--0--0^2-0--| (play 3x)
D-0--0--3---0--|
A-2--0--3---0--|
E-x--3--x---3--|

e-3--3--3----0--0--|
B-1--1--1----1--1--|
G-0--0--0^2--0--0--| (lead in to chorus)
D-2--0--3----2--0--|
A-0--0--3----3--2--|
E-x--3--x----x--x--|

Chorus:
e----------------------------------|
B---1---1---1---1---1---1---1---1--|
G--0-0-0-0-0-0-0-0-0-0-0-0-0-0-0-0-| (play 4x)
D----------------------------------|
A-3---3---3---3---0---0---2---2----|
E----------------------------------|

(Strum)
e-0--3--0-----3--3--3--0----0--0--|
B-1--1--1-----1--1--1--1----1--1--|
G-0--0--0^2---0--0--0--0^2--0--0--|
D-2--0--3-----0--2--0--3----2--0--|
A-0--0--3-----0--0--0--3----3--2--|
E-x--3--x-----3--x--3--x----x--x--|

Verse 2:
e-3--3--0---3--|
B-1--1--1---1--|
G-0--0--0^2-0--| (play 1x)
D-0--0--3---0--|
A-2--0--3---0--|
E-x--3--x---3--|

e-3--3--3----0--0--|
B-1--1--1----1--1--|
G-0--0--0^2--0--0--| (lead in to chorus)
D-2--0--3----2--0--|
A-0--0--3----3--2--|
E-x--3--x----x--x--|

Chorus:
e----------------------------------|
B---1---1---1---1---1---1---1---1--|
G--0-0-0-0-0-0-0-0-0-0-0-0-0-0-0-0-| (play 4x)
D----------------------------------|
A-3---3---3---3---0---0---2---2----|
E----------------------------------|

Bridge:
e-0--3--3--3-|
B-1--1--1--1-|
G-2--0--0--0-|  (play 2x)
D-3--0--2--0-|
A-3--0--0--0-|
E-x--3--x--3-|

e-0--0--0-|
B-1--1--1-|
G-2--0--0-|  (Lead into final chorus)
D-3--2--0-|
A-3--0--2-|
E-x--x--x-|

Final Chorus:
e----------------------------------|
B---1---1---1---1---1---1---1---1--|
G--0-0-0-0-0-0-0-0-0-0-0-0-0-0-0-0-| (play 4x)
D----------------------------------|
A-3---3---3---3---0---0---2---2----|
E----------------------------------|

This is a video of me playing it - http://www.youtube.com/watch?v=31ZZ_sEzClc

This is a video of Boyce Avenue playing it - 
http://www.youtube.com/watch?v=DmZphYwDhzU&feature=related


I hope this helps.  I think the bridge is the least accurate part.  Like I said before 
bugging Alejandro to post some tabs on it haha!
Добавлено: 04.05.2012
Другие материалы по этой песне:
  • Аккорды и текст

Страница создана 04.05.2012
http://primanota.ru/boyce-avenue/brianne-chords.htm
Привет, Гость.
Предлагаем пройти революционный курс по гитаре.
Подарок от PrimaNota.Ru, забирай!