PrimaNota.ru - самый крупный в мире бесплатный архив песенных текстов, аккордов, табулатур и нот


Boyce Avenue - All Of Me - аккорды и текст, таба, видео

Регистрация Запомнить меня
Войти через:  Facebook Google Twitter Vk Yandex Mail.ru

Boyce Avenue - All Of Me - аккорды и текст, таба, видео

Печатать
Просмотров: 426
All Of Me
Boyce Avenue
Intro: 
e|-----------------------------------------------------------------| 
B|-------0-------------------------------0-------------------------| 
G|-----0-----0-----4h5-----4p0---------0-----0---------------------| 
D|-0h2---------------------------------------------5h7-------------| 
A|-----------------3---------------5h7-----------------------------| 
D|-2-------------------------------5---------------0---------------| 
 
Verse 1: 
e|-----------------------------------------------------------------| 
B|-0---------------1---------------0---------------3---------------| 
G|-0---------------0---------------0---------------2---------------| x4 
D|-2---------------2---------------0---------------0---------------| 
A|-----------------3-----------------------------------------------| 
D|-2-------------------------------5---------------4---------------| 
 
Pre-Chorus 1: 
e|-------3---------------3---------------5-----------------3p2-----| 
B|-----0-----0---0-----0-----0---0-----0-----0---0-----3-------3---| 
G|-4h5---------5-----5---------5-----0---------0-----2---2-------2-| 
D|-------------------------------------------------0---------------| 
A|-0---------------0-----------------------------------------------| 
D|---------------------------------5-------------------------------| 
                                                    
e|-------3---------------3---------------5-------------------------| 
B|-----0-----0---0-----0-----0---0-----0-----0---0-----------------| 
G|-4h5---------5-----5---------5-----0---------0-------------------| 
D|------------------------------------------------+12+-------------| 
A|-0---------------0------------------------------+12+-------------| 
D|---------------------------------5--------------+12+-------------| 
 
Chorus 1: 
e|-----------------------------------------------------------------| 
B|-------0---------------0---------------0---------------0---------| 
G|-----0-----0---0-----0-----0---0-----0-----0---0-----0-----0---0-| 
D|---0---------0-----0---------0-----2---------2-----2---------2---| 
A|-----------------------------------------------------------------| 
D|-5---------------5---------------2---------------2---------------|  
 |                                                                    x2 
e|-----------------------------------------------------------------| / 
B|-------1---------------1---------------3---------------3---------|/ 
G|-----0-----0---0-----0-----0---0-----0-----0---0-----0-----0---0-| 
D|---2---------2-----2---------2-----4---------4-----4---------4---| 
A|-3---------------3---------------5---------------5---------------| 
D|-----------------------------------------------------------------| 
 
e|-----------------------------------------------------------------| 
B|-------0---------------1---------------0---------------3---------| 
G|-----0-----0---0-----0-----0---0-----0-----0---0-----2-----2---2-| 
D|---2---------2-----2---------2-----0---------0-----0---------0---| 
A|-----------------3-----------------------------------------------| 
D|-2-------------------------------5---------------4---------------| 
 
e|-----------------------------------------------------------------| 
B|-------0---------------1---------------0---------3---------------| 
G|-----0-----0---0-----0-----0---0-----0-----0-----2---------------| 
D|---2---------2-----2---------2-----0---------0---0---------------| 
A|-----------------3-----------------------------------------------| 
D|-2-------------------------------5---------------4---------------| 
 
Verse 2: 
e|-----------------------------------------------------------------| 
B|-------0-------------------------------0-------------------------| 
G|-----0-----0-----4h5-----4p0---------0-----0---------------------| x4 
D|-0h2---------------------------------------------5h7-----5p4-----| 
A|-----------------3---3---3---3---5h7-----------------------------| 
D|-2---2---2---2-------------------5---5---5---5---0---0---0---0---| 
 
Pre-Chorus 2: 
e|-------3---------------3---------------5-----------------3p2-----| 
B|-----0-----0---0-----0-----0---0-----0-----0---0-----3-------3---| 
G|-4h5---------5-----5---------5-----0---------0-----2---2-------2-| 
D|-------------------------------------------------0---0---0---0---| 
A|-0---0---0---0---0---0---0---0-----------------------------------| 
D|---------------------------------5---5---5---5-------------------| 
                                                    
e|-------3---------------3---------------5-------------------------| 
B|-----0-----0---0-----0-----0---0-----0-----0---0-----------------| 
G|-4h5---------5-----5---------5-----0---------0-------------------| 
D|------------------------------------------------+12+-------------| 
A|-0---0---0---0---0---0---0---0------------------+12+-------------| 
D|---------------------------------5---5---5---5--+12+-------------| 
 
Chorus 2: 
e|-----------------------------------------------------------------| 
B|-------0---------------0---------------0---------------0---------| 
G|-----0-----0---0-----0-----0---0-----0-----0---0-----0-----0---0-| 
D|---0---------0-----0---------0-----2---------2-----2---------2---| 
A|-----------------------------------------------------------------| 
D|-5-------5-------5-------4-------2-----------2---2-------0-------| 
 
e|-----------------------------------------------------------------| 
B|-------1---------------1---------------3---------------3---------| 
G|-----0-----0---0-----0-----0---0-----0-----0---0-----0-----0---0-| 
D|---2---------2-----2---------2-----4---------4-----4---------4---| 
A|-3---------------3-------3-------5---------------5-------5-------| 
D|-----------------------------------------------------------------| 
 
e|-----------------------------------------------------------------| 
B|-------0---------------0---------------0---------------0---------| 
G|-----0-----0---0-----0-----0---0-----0-----0---0-----0-----0---0-| 
D|---0---------0-----0---------0-----2---------2-----2---------2---| 
A|-----------------------------------------------------------------| 
D|-5---------------5-------4-------2---------------2-------0-------| 
 
e|-----------------------------------------------------------------| 
B|-------1---------------1---------------3-------------------------| 
G|-----0-----0---0-----0-----0---0-----0-----0---0-----------------| 
D|---2---------2-----2---------2-----4---------4-------------------| 
A|-3---------------3-------3-------5---------------5---------------| 
D|-----------------------------------------------------------------| 
 
e|-----------------------------------------------------------------| 
B|-------0---------------1---------------0---------------3---------| 
G|-----0-----0---0-----0-----0---0-----0-----0---0-----2-----2---2-| 
D|---2---------2-----2---------2-----0---------0-----0---------0---| 
A|-----------------3-----------------------------------------------| 
D|-2-------------------------------5---------------4---------------| 
                                                    
e|-----------------------------------------------------------------| 
B|-------0---------------1---------------0---------x---------------| 
G|-----0-----0---0-----0-----0---0-----0-----0---0-x---------------| 
D|---2---------2-----2---------2-----0---------0---x---------------| 
A|-----------------3-------------------------------x---------------| 
D|-2-------------------------------5---------------x---------------| 
 
Bridge - same as Pre-Chorus 2 
 
Chorus 3: 
e|-----------------------------------------------------------------| 
B|-0------------------------------0--------------------------------| 
G|-0------------------------------0--------------------------------| 
D|-0------------------------------2--------------------------------| 
A|-----------------------------------------------------------------| 
D|-5------------------------------2--------------------------------| 
 
e|-----------------------------------------------------------------| 
B|-1------------------------------3--------------------------------| 
G|-0------------------------------0--------------------------------| 
D|-2------------------------------0--------------------------------| 
A|-3------------------------------0--------------------------------| 
D|-----------------------------------------------------------------| 
 
e|-----------------------------------------------------------------| 
B|-------0---------------0---------------0---------------0---------| 
G|-----0-----0---0-----0-----0---0-----0-----0---0-----0-----0---0-| 
D|---0---------0-----0---------0-----2---------2-----2---------2---| 
A|-----------------------------------------------------------------| 
D|-5---------------5-------4-------2---------------2-------0-------| 
 
e|-----------------------------------------------------------------| 
B|-------1---------------1---------------3---------------3---------| 
G|-----0-----0---0-----0-----0---0-----0-----0---0-----0-----0---0-| 
D|---2---------2-----2---------2-----4---------4-----4---------4---| 
A|-3---------------3-------3-------5---------------5-------5-------| 
D|-----------------------------------------------------------------| 
 
e|-----------------------------------------------------------------| 
B|-------0---------------1---------------0---------------3---------| 
G|-----0-----0---0-----0-----0---0-----0-----0---0-----2-----2---2-| x3 
D|---2---------2-----2---------2-----0---------0-----0---------0---| 
A|-----------------3-----------------------------------------------| 
D|-2-------------------------------5---------------4---------------| 
 
e|-------------------------------------------------------------------------| 
B|-------0---------------1------------------0------------------------------| 
G|-----0-----0---0-----0-----0---0------0--------0------------0--+12+------| 
D|---2---------2-----2---------2-----0-----------------0---------+12+------| 
A|-----------------3---------------------------------------------+12+------| 
D|-2-------------------------------5------------------------------0--------| 
Добавлено: 10.04.2016
Другие материалы по этой песне:
  • Аккорды и текст

Страница создана 22.09.2014
http://primanota.ru/boyce-avenue/all-of-me-chords.htm
Привет, Гость.
Предлагаем пройти революционный курс по гитаре.
Подарок от PrimaNota.Ru, забирай!