PrimaNota.ru - самый крупный в мире бесплатный архив песенных текстов, аккордов, табулатур и нот


Boy - New York - аккорды и текст, видео

Регистрация Запомнить меня
Войти через:  Facebook Google Twitter Vk Yandex Mail.ru

Boy - New York - аккорды и текст, видео

Печатать
Просмотров: 97
Уроки эстрадного вокала в Санкт-Петербурге
New York
Boy
-----------------------------------------------------------------------------
                                          Artist - Boy
                                         **************
                                   Song - New York - Acoustic  
                                  ****************************
                                      Tabbed By - Ayreon77
                                     **********************
-----------------------------------------------------------------------------
Tuning = Standard


--------------
CAPO 1st FRET
--------------

Fret notes are the actual frets. 

Picking Pattern
INTRO
******
  C            F              C
e|------------|--------------|--------------|--------------|
B|---6------6-|-----7------7-|-----4------4-|-----6------6-|
G|------------|--------------|--------------|--------------|
D|------------|--------------|--------------|--------------|
A|-4----4-4---|-4-4----4-4---|-4-4----4-4---|-4-4----4-4---|
E|------------|--------------|--------------|--------------|


VERSE 1
  C              F              G                             
e|--------------|--------------|--------------|--------------|
B|-----6------6-|-----7------7-|-----4------4-|-----6------6-|
G|--------------|--------------|--------------|--------------|
D|--------------|--------------|--------------|--------------|
A|-4-4----4-4---|-4-4----4-4---|-4-4----4-4---|-4-4----4-4---|
E|--------------|--------------|--------------|--------------|

  Am                                            F           
e|--------------|---------------|--------------|--------------|
B|-----6------6-|------7------7-|-----4------4-|-----4------4-|
G|--------------|---------------|--------------|--------------|
D|--------------|---------------|--------------|--------------|
A|--------------|---------------|--------------|-3-3----3-3---|
E|-6-6----6-6---|-6-6-----6-6---|-6-6----6-6---|--------------|

  C               F               G
e|---------------|---------------|---------------|---------------|
B|-----6-------6-|-----7-------7-|-----4-------4-|-----6-------6-|
G|---------------|---------------|---------------|---------------|This Is all the 
D|---------------|---------------|---------------|---------------|    Picking Pattern
A|-4-4-----4-4---|-4-4-----4-4---|-4-4-----4-4---|-4-4-----4-4---| It just repeats over again.
E|---------------|---------------|---------------|---------------|


---------------------------------------
VERSE 1
********
C
come my wild horse
F
Come, come pick me up
C                                               Am
    Let's go outside and let's pretend it's New York

Drown the small town troubles
   F                      
In Hudson River puddles


C  F  G  C


---------------------------------------
VERSE 2
********
C
   Put those shining dancing boots on
                                        Am
We'll meet the local heroes down at the bar
    Dm                     F
The gifted and the phonies
G               F
Rodeo on ponies


---------------------------------------
CHORUS
*******
        C
And the truth is
      Am                      G
I was wrong when I said I was bored
                            Am
Any street that I'm walking on with you
   F                       C
Anywhere with you could be New York
        F
And the truth is
      C
I was sleeping
      Am                       G
But I woke up all eyes and all ears
                                    Am
When you whispered, it's all really happening
                C
It's all really happening here


C  F  G  C


---------------------------------------
VERSE 3
********
C                          Dm
  Will you spin the bottle with the muses
               C                               Am
That I've been calling for till I thought they gone
Dm                      F
Camping on Long Island
        G                              Dm
Put the backyards where they're hiding in


---------------------------------------
BRIDGE
*******
                                  C
And these corners seemed run down before
                           Am
But you pointed your finger
       F                     C
At the magic and wonder they hold
                                    Am
Now we're out and we're digging for gold


---------------------------------------
CHORUS
*******
          C
Cause the truth is
      Am                      G
I was wrong when I said I was bored
                            Am
Any street that I'm walking on with you
   F                       C
Anywhere with you could be New York
        F
And the truth is
      C
I was sleeping
      Am                       G
But I woke up all eyes and all ears
                                    Am
When you whispered, it's all really happening
     C   
It's all really happening here
        Dm
And the truth is
      Em
I was sleeping
         Am                 G
Dreaming away till I forgot
                          Am
That wherever we are it's happening
        F              Em      Am
Come on wild horse and pick me up


C F G 


---------------------------------------
OUTRO
******
Am      C
Come my wild horse
F          G
Come, come pick me up
Am      C
Come my wild horse
F          G
Come, come pick me up
Am      C
Come my wild horse
F          G
Come, come pick me up

G



ENJOY..............
Добавлено: 16.06.2016
Вам также может быть интересно:
Другие материалы по этой песне:
  • Аккорды и текст

Страница создана 16.06.2016
http://primanota.ru/boy/new-york-chords.htm
Привет, Гость.
Предлагаем пройти революционный курс по гитаре.
Подарок от PrimaNota.Ru, забирай!