PrimaNota.ru - самый крупный в мире бесплатный архив песенных текстов, аккордов, табулатур и нот


Boy - Flames - таба, видео

Регистрация Запомнить меня
Войти через:  Facebook Google Twitter Vk Yandex Mail.ru

Boy - Flames - таба, видео

Печатать
Просмотров: 152
Уроки эстрадного вокала в Санкт-Петербурге
-------------------------------------------------------------------------------
                             BOY - Flames
-------------------------------------------------------------------------------
Tabbed by: Hope
E-mail: ahopelim11@gmail.com

Tuning: Standard
Key -> A
Capo 2

Intro 
e|-------------|
B|----0---0----|
G|------0------| x6
D|--2----------|
A|-------------|
E|-------------|

Verse 
e|---------------------------------------------------------------------------|
B|----0---0---0---0---0---0---0---0----0---0---0---0---0---0---0---0---------|
G|------0-------0-------0-------0--------2-------2-------2-------2-----------|
D|--2-------2-------2-------2--------4-------4-------4-------4---------------|
A|---------------------------------------------------------------------------|
E|---------------------------------------------------------------------------|

e|---------------------------------------------------------------------------|
B|----0---0---0---0----0---0---0---0----0---0---0---0----0---0---0---0-------|
G|------0-------0--------0-------0--------4-------4--------2-------2---------|
D|--2-------2-------------------------5-------5--------4-------4-------------|
A|-------------------3-------3-----------------------------------------------|
E|---------------------------------------------------------------------------|

e|---------------------------------------------------------------------------|
B|----0---0---0---0---0---0---0---0----0---0---0---0---0---0---0---0---------|
G|------0-------0-------0-------0--------2-------2-------2-------2-----------|
D|--2-------2-------2-------2--------4-------4-------4-------4---------------|
A|---------------------------------------------------------------------------|
E|---------------------------------------------------------------------------|

e|---------------------------------------------------------------------------|
B|----0---0---0---0----0---0---0---0----0---0---0---0----3---3---3---3-------|
G|------0-------0------------0---------------------------------0-------------|
D|--2-------2------------2-------2-------------------------4-------4---------|
A|-------------------3--------------------2-------2----5---------------------|
E|------------------------------------3-------3------------------------------|

Chorus
e|---------------------------------------------------------------------------|
B|----1---1---1---1---1---1---1------0---0---0-----0---0---0-----------------|
G|----------2---------------2--------------0-------------0-------------------|
D|------2-------2-------2-------2------2-------2-----2-------2---------------|
A|--0---------------0--------------------------------------------------------|
E|---------------------------------0-------------0---------------------------|

e|---------------------------------------------------------------------------|
B|----0---0---0-----0---0---0------3---3---3---3---3---3---3---3-------------|
G|----------0-------------0--------------0---------------0-------------------| 
D|------0-------0-----0-------0------4-------4-------4-------4---------------|
A|-------------------------------5---------------5---------------------------|
E|--3-------------3----------------------------------------------------------|

 x2

Verse 2
e|---------------------------------------------------------------------------|
B|----0---0---0---0---0---0---0---0----0---0---0---0---0---0---0---0---------|
G|------0-------0-------0-------0--------2-------2-------2-------2-----------|
D|--2-------2-------2-------2--------4-------4-------4-------4---------------|
A|---------------------------------------------------------------------------|
E|---------------------------------------------------------------------------|

e|---------------------------------------------------------------------------|
B|----0---0---0---0----0---0---0---0----0---0---0---0----0---0---0---0-------|
G|------0-------0--------0-------0--------4-------4--------2-------2---------| 
D|--2-------2-------------------------5-------5--------4-------4-------------| 
A|-------------------3-------3-----------------------------------------------|
E|---------------------------------------------------------------------------|

 x2

e|---------------------------------------------------------------------------|
B|----0---0---0---0---0---0---0---0----0---0---0---0---0---0---0---0---------|
G|------0-------0-------0-------0--------2-------2-------2-------2-----------|
D|--2-------2-------2-------2--------4-------4-------4-------4---------------|
A|---------------------------------------------------------------------------|
E|---------------------------------------------------------------------------|

e|---------------------------------------------------------------------------|
B|----0---0---0---0----0---0---0---0----0---0---0---0----3---3---3---3-------|
G|------0-------0------------0---------------------------------0-------------|
D|--2-------2------------2-------2-------------------------4-------4---------|
A|-------------------3--------------------2-------2----5---------------------|
E|------------------------------------3-------3------------------------------|

Pre-chorus (If I knew how...)
e|---------------|---------------|---------------|---------------------------|
B|---------------|---------------|---------------|---------------------------|
G|-------0-------|-------0-------|-------0-------|-------0-------------------|
D|-------9-------|-------7-------|-------5-------|-------0-------------------|
A|------10-------|-------9-------|-------7-------|-------2-------------------|
E|---------------|---------------|---------------|---------------------------|

e|---------------------------------------------------------------------------|
B|-----0---0----0---0----0---0----0----0----0---0---0---0---0---0---0---0----|
G|---------------------------------------------------------------------------|
D|-------9--------9--------9--------9---------7-------7-------7-------7------|
A|--10-------10-------10-------10---------9-------9-------9-------9----------|
E|---------------------------------------------------------------------------|

e|---------------------------------------------------------------------------|
B|----0---0---0---0---0---0---0---0----0---0---0---0---0---0---0---0---------|
G|---------------------------------------------------------------------------|
D|------5-------5-------5-------5--------0-------0-------0-------0-----------|
A|--7-------7-------7-------7--------2-------2-------2-------2---------------|
E|---------------------------------------------------------------------------|

Chorus

Outro (...your mind)
e|---------------------------------------------------------------------------|
B|----1---1---1---1---1---1---1---1---0---0---0---0---0---0---0---0----------|
G|----------0---------------0---------------0---------------0----------------|
D|------2-------2-------2-------2-------2-------2-------2-------2------------|
A|--3---------------3--------------------------------------------------------|
E|----------------------------------0---------------0------------------------|

e|---------------------------------------------------------------------------|
B|----0---0---0---0---0---0---0---0----3---3---3---3---3---3---3-------------|
G|----------0---------------0----------------0---------------0---------------|
D|------0-------0-------0-------0--------4-------4-------4-------4-----------|
A|-----------------------------------5---------------5-----------------------|
E|--3---------------3--------------------------------------------------------|

  x2

e|---0---|
B|---0---|
G|---0---|
D|---2---|
A|---3---|
E|-------|

************************************
Добавлено: 16.06.2016
Вам также может быть интересно:
Другие материалы по этой песне:
  • Аккорды и текст

Страница создана 16.06.2016
http://primanota.ru/boy/flames-chords.htm
Привет, Гость.
Предлагаем пройти революционный курс по гитаре.
Подарок от PrimaNota.Ru, забирай!