PrimaNota.ru - самый крупный в мире бесплатный архив песенных текстов, аккордов, табулатур и нот


Boy - Fear - таба, видео

Регистрация Запомнить меня
Войти через:  Facebook Google Twitter Vk Yandex Mail.ru

Boy - Fear - таба, видео

Печатать
Просмотров: 65
Уроки эстрадного вокала в Санкт-Петербурге
-------------------------------------------------------------------------------
                             Fear - BOY
-------------------------------------------------------------------------------
Tabbed by: Hope
E-mail:ahopelim11@gmail.com

Tuning: Standard
Key F#
Capo 6 -> chords in C

Verse 1
e|-------|-------|-------|-------|---------|---------|---------|----------|
B|-------|-------|-------|-------|---------|---------|---------|----------|
G|-------|-------|-------|-------|---------|---------|---------|----------|
D|-------|-------|-------|-------|---------|---------|---------|----------|  x4
A|--3-3--|--3-3--|--3-3--|--3-3--|---------|---------|---------|----------|
E|-------|-------|-------|-------|--0-0-h3-|--0-0-h3-|--0-0-h3-|--0-0-h3--|

Chorus
e|--------------------------------------------------------------------|
B|--------------------------------------------------------------------|
G|----------5------5------5-------------5------5------5---------------|
D|------7-7----7-7----7-7----5--7---2-2----2-2----2-2----2--5---------|
A|--------------------------------------------------------------------|
E|-0-3----------------------------------------------------------------|

e|--------------------------------------------------------------------|
B|--------------------------------------------------------------------|
G|------5------5------5-------------5------5------5-------------------|
D|--7-7----7-7----7-7----5--7---2-2----2-2----2-2----2-2--------------|
A|--------------------------------------------------------------------|
E|--------------------------------------------------------------------|

Verse 2
e|-------|-------|-------|-------|-------|-------|-------|-------|
B|-------|-------|-------|-------|-------|-------|-------|-------|
G|-------|-------|-------|-------|-------|-------|-------|-------|
D|-------|-------|-------|-------|-------|-------|-------|-------|
A|--3-3--|--3-3--|--3-3--|--3-3--|-------|-------|-------|-------|
E|-------|-------|-------|-------|--0-0--|--0-0--|--0-0--|--0-0--|

e|-------|-------|-------|-------|-------|-------|-------|-------|
B|-------|-------|-------|-------|-------|-------|-------|-------|
G|-------|-------|-------|-------|-------|-------|-------|-------|
D|-------|-------|-------|-------|-------|-------|-------|-------|
A|--3-3--|--3-3--|--3-3--|--3-3--|-------|-------|-------|-------|
E|-------|-------|-------|-------|--3-3--|--3-3--|--3-3--|--3-3--|

e|-------|-------|-------|-------|-------|-------|-------|-------|
B|-------|-------|-------|-------|-------|-------|-------|-------|
G|-------|-------|-------|-------|-------|-------|-------|-------|
D|-------|-------|-------|-------|-------|-------|-------|-------|
A|-------|-------|--0-0--|--0-0--|-------|-------|-------|-------|
E|--1-1--|--1-1--|-------|-------|--3-3--|--3-3--|--3-3--|--3-3--|

e|-------|-------|-------|-------|-------|-------|-------|-------|
B|-------|-------|-------|-------|-------|-------|-------|-------|
G|-------|-------|-------|-------|-------|-------|-------|-------|
D|-------|-------|-------|-------|-------|-------|-------|-------|
A|-------|-------|--0-0--|--0-0--|-------|-------|-------|-------|
E|--1-1--|--1-1--|-------|-------|--3-3--|--3-3--|--3-3--|--3-3--|

Chorus
e|--------------------------------------------------------------------|
B|--------------------------------------------------------------------|
G|----------5------5------5-------------5------5------5---------------|
D|------7-7----7-7----7-7----5--7---2-2----2-2----2-2----2--5---------|
A|--------------------------------------------------------------------|
E|-0-3----------------------------------------------------------------|

e|--------------------------------------------------------------------|
B|--------------------------------------------------------------------|
G|------5------5------5-------------5------5------5-------------------|
D|--7-7----7-7----7-7----5--7---2-2----2-2----2-2----2--2-------------|
A|--------------------------------------------------------------------|
E|--------------------------------------------------------------------|

e|--------------------------------------------------------------------|
B|--------------------------------------------------------------------|
G|------4------4------4-------------5------5------5-------------------|
D|--0-0----0-0----0-0----0--0---2-2----2-2----2-2----2--5--7----------|
A|--------------------------------------------------------------------|
E|--------------------------------------------------------------------|

e|--------------------------------------------------------------------|
B|--------------------------------------------------------------------|
G|------5------5------5-------------5------5------5-------------------|
D|--7-7----7-7----7-7----5--7---2-2----2-2----2-2----2-0--------------|
A|--------------------------------------------------------------------|
E|--------------------------------------------------------------------|

Interlude
      am        dm        G         F(x2)    am         G 
e|----0----|----1----|----2----|----x----|----0----|---(3)---|
B|----1----|----3----|----0----|----1----|----1----|----1----|
G|----2----|----2----|----0----|----2----|----2----|----0----|
D|----2----|----0----|----0----|----3----|----2----|----0----|
A|----0----|----x----|----2----|----3----|----0----|----2----|
E|----x----|----x----|----3----|----x----|----x----|----3----|

Bridge
     am(x2)     dm        G       F(x2)      C/G        em
e|----0----|----x----|----3----|----x----|----0----|----0----|
B|----1----|----6----|----0----|----1----|----1----|----0----|
G|----2----|----0----|----0----|----2----|----0----|----0----|
D|----2----|----7----|----0----|----3----|----2----|----2----|
A|----0----|----5----|----2----|----3----|----3----|----2----|
E|----x----|----x----|----3----|----x----|----3----|----0----|

Outro
e|---------------------------------------------------------------------------------------------------|
B|---------------------------------------------------------------------------------------------------|
G|---------------------------------------------------------------------------------------------------|
D|---------------------------------------------------------------------------------------------------|
A|------3-----3-----3------------7-----7-----7------------5-----5-----5-------------7-----7-----7----|
E|--5-5---5-5---5-5---7--7---8-8---8-8---8-8---8--7---5-5---5-5---5-5----7--7---8-8---8-8---8-8---8-8|

e|---------------------------------------------------------------------------------------------------|
B|---------------------------------------------------------------------------------------------------|
G|---------------------------------------------------------------------------------------------------|
D|------5-----5-----5-----------------------------------5-----5-----5--------------------------------|
A|------------------------------7-----7-----7-------------------------------------7-----7-----7------|
E|--7-7---7-7---7-7---7-7---8-8---8-8---8-8---8--7--5-5---5-5---5-5----7--7---8-8---8-8---8-8---8-8--|


************************************

| /   slide up
| \   slide down
| h   hammer-on
| p   pull-off
| ~   vibrato
| +   harmonic
| x   Mute note
| b   Bend
| pb  Pre-bend
| br  Bend release
| pbr Pre-bend release
| brb Bend release bend

************************************
Добавлено: 16.06.2016
Вам также может быть интересно:
Другие материалы по этой песне:
  • Аккорды и текст

Страница создана 16.06.2016
http://primanota.ru/boy/fear-chords.htm
Привет, Гость.
Предлагаем пройти революционный курс по гитаре.
Подарок от PrimaNota.Ru, забирай!