PrimaNota.ru - самый крупный в мире бесплатный архив песенных текстов, аккордов, табулатур и нот


Boy Sets Fire - Requiem - таба, бас-таба, видео

Регистрация Запомнить меня
Войти через:  Facebook Google Twitter Vk Yandex Mail.ru

Boy Sets Fire - Requiem - таба, бас-таба, видео

Печатать
Просмотров: 183
Artist: Boysetsfire Guitar Tabs
Song: Requiem
Type: Guitar Tabs
Author: Oliver Kierepka
info@oliverkierepka.deRequiem (The Misery Index - Notes From The Plague Years) - Boysetsfire

---------------------------------------------------------------

GUITAR TUNING: DROP-D
BASS TUNING: DROP-D

INTRO: (2x)

Effekte (Mega Distortion)	Guitar 1
E|----8----------------------------|
B|----8----------------------------|
G|---10---2----5---2---9--10-------|
D|----8---0----5---0---X---X-------|
A|----8---0----3---0---7---8-------|
D|----8---0--------0---------------|

				Guitar 2
E|---------------------------------|
B|---------------------------------|
G|---10---9---12---9---9--14-------|
D|----X---X----X---X---X---X-------|
A|----8---7---10---7---7--12-------|
D|---------------------------------|

				Bass
G|---------------------------------|
D|---------------------------------|
A|-------------3-------------------|
D|----3---0--------0---------------|

VERSE

Effekte (Chorus)				Guitar 1
E|----8 ~ ~ ~ ------------------------------------------------|
B|----8 ~ ~ ~ ------------------------------------------------|
G|---10 ~ ~ ~ ------------------------------------------------|
D|----8 ~ ~ ~ ------------------------------------------------|
A|----8 ~ ~ ~ ------------------------------------------------|
D|----8 ~ ~ ~ ------------------------------------------------|

Effekte (kurzer Delay)				Guitar 2
E|------------------------------------------------------------>
B|-------6-----6----------6-----6-------8--6-------8--6------->
G|-----5--5--5---5------5--5--5---5-----5--5--5----7--5--5---->
D|------------------------------------------------------------>
A|----5---------------5-----------------5~ ---5~ ------------->
D|------------------------------------------------------------>


   >--------0----0----------------------0----0----------------|
   >-----6----6-------6--8--6--------6----6-------6--8--6-----|
   >---5---5--------5----5---------5---5--------5----5--------|
   >-0----------0--0-------------0----------0--0--------------|
   >----------------------------------------------------------|
   >----------------------------------------------------------|

	(Play 2 times)				Bass
G|------------------------------------------------------------|
D|------------------------------------------------------------|
A|------------------------------------------------------------|
D|----3---------------0-----------------5----------0----------|


PRE-CHORUS

Effekte (Mega Distortion)		Guitar 1
E|---------------------------------------------|
B|---------------------------------------------|
G|---------------------------------------------|
D|---0---0--0-0--10--10-10-10-10-10------------|
A|---0---0--0-0--10--10-10-10-10-10------------|
D|---0---0--0-0--10--10-10-10-10-10------------|


Effekte (Mega Distortion)		Guitar 2
E|---------------------------------------------|
B|---------------------------------------------|
G|---------------------------------------------|
D|---0---0--0-0---3---3--3--3--3--3------------|
A|---0---0--0-0---3---3--3--3--3--3------------|
D|---0---0--0-0---3---3--3--3--3--3------------|

					Bass
G|---------------------------------------------|
D|---------------------------------------------|
A|---------------------------------------------|
D|---0---0--0-0---0---0--0--0--0--0------------|

CHORUS (2x)

Effekte (Mega Distortion, RHYTHM)		Guitar 1
E|----8----------------------------------------------------------|
B|----8----------------------------------------------------------|
G|---10---2----5---2---9--10-------------------------------------|
D|----8---0----5---0---X---X-------------------------------------|
A|----8---0----3---0---7---8-------------------------------------|
D|----8---0--------0---------------------------------------------|

Effekte (Mega Distortion, TREBLE)		Guitar 2
E|---------------------------------------------------------------|
B|---------------------------------------------------------------|
G|---10---9---12---9---9--14-------------------------------------|
D|----X---X----X---X---X---X-------------------------------------|
A|----8---7---10---7---7--12-------------------------------------|
D|---------------------------------------------------------------|

						Bass
G|---------------------------------------------------------------|
D|---------------------------------------------------------------|
A|-------------3-------------------------------------------------|
D|----3---0--------0---------------------------------------------|

PRE-BRIDGE

Effekte (Mega Distortion)		Guitar 1
E|---------------------------------------------|
B|---------------------------------------------|
G|---------------------------------------------|
D|---0---0--0-0---0---0--0--0--0--0~ ----------|
A|---0---0--0-0---0---0--0--0--0--0~ ----------|
D|---0---0--0-0---0---0--0--0--0--0~ ----------|


Effekte (Mega Distortion)		Guitar 2
E|---------------------------------------------|
B|---------------------------------------------|
G|---------------------------------------------|
D|---0---0--0-0---0---0--0--0--0--0~ ----------|
A|---0---0--0-0---0---0--0--0--0--0~ ----------|
D|---0---0--0-0---0---0--0--0--0--0~ ----------|

					Bass
G|---------------------------------------------|
D|---------------------------------------------|
A|---------------------------------------------|
D|---0---0--0-0---0---0--0--0--0--0~ ----------|

BRIDGE

(Clean, RHYTHM)							Guitar 1
E|----0^-------0^--------------------|----0^-------0^------------------|
B|----6^-------5^--------------------|----6^-------5^------------------|
G|----5^-------5^-------5--3--2--3---|----5^-------5^-------5--3--2--3-|
D|----0^-------0^-------3--3--2--3---|----0^-------0^-------3--3--2--3-|
A|----0^-------0^--------------------|----0^-------0^------------------|
D|-----------------------------------|---------------------------------|

(Clean, TREBLE)			      (Mega Distortion, TREBLE) Guitar 2
E|-----------------------------------|---------------------------------|
B|-----------------------------------|---------------------------------|
G|----5--------4---------3-------5---|---10--------9-------10--12--14--|
D|----3--------3---------5-------3---|----X--------X--------X---X---X--|
A|-----------------------------------|----8--------7--------8--10--12--|
D|-----------------------------------|---------------------------------|

							Bass
G|-----------------------------------|---------------------------------|
D|-----------------------------------|---------------------------------|
A|-----------------------------------|---------------------------------|
D|----0--------5---------3-------2---|----0--------5---------3-------2-|


Not quiet complete, but a good base to create the last parts.
Have fun.
Добавлено: 04.07.2012
Другие материалы по этой песне:
  • Аккорды и текст

Страница создана 09.06.2012
http://primanota.ru/boy-sets-fire/requiem-chords.htm
Привет, Гость.
Предлагаем пройти революционный курс по гитаре.
Подарок от PrimaNota.Ru, забирай!