PrimaNota.ru - самый крупный в мире бесплатный архив песенных текстов, аккордов, табулатур и нот


Boy Kill Boy - Secret Song - таба, видео

Регистрация Запомнить меня
Войти через:  Facebook Google Twitter Vk Yandex Mail.ru

Boy Kill Boy - Secret Song - таба, видео

Печатать
Просмотров: 176
first tab..i think its pretty good..


  (main bit)                                               (for intro)
e --------------------------------------------------------|----------|
b --6--------5--------6--------5--------6--------5--------|-6--5-----|
g ----7---7----7---7----7---7----5---5----7---7----7---7--|----5-----|
d ------7--------7--------8--------5--------7--------7----|-8--------|
a --------------------------------------------------------|----------|
E --------------------------------------------------------|----------|

do that main bit a coupla times.. then half way through.. when he says..

                     "yeahh, yeahh.."
e ---------------------------------------|
b ---5---5---5---5----1--------3---------|
g -----6---6---6---6----2---2----4---4---|
d ------------------------3--------5-----|
a ---------------------------------------|
E ---------------------------------------|

then do the main bit again init.. then for the chorus a bitta this..

e --------------------------------------------------------------------------|
b --10--------10----------8-------8--------5-------5--------6-------6-------|
g ----10--10----10--10-----9--9----9--9-----6--6----6--6-----7--7----7--7---|
d ------10--------10--------10------10-------7-------7---------8------8-----|
a --------------------------------------------------------------------------|
E --------------------------------------------------------------------------|

e --------------------------------------------------------------------------|
b --10---------10---------8-------8-------11------11----------6-------6-----|
g ----10--10----10--10-----9--9----9--9----12--12---12--12-----7--7----7--7-|
d ------10--------10--------10------10------12-------12---------8-------8---|
a --------------------------------------------------------------------------|
E --------------------------------------------------------------------------|

and then i reck the last bit goes..

e ------------------------------------------------------------------------|
b ---------3-----------------3-----------------3-----------------3--------|
g -----3-----3---3-------3-----3---3-------3-----3---3-------3-----3---3--|
d ---3---3-----3-------3---3-----3-------3---3-----3-------3---3-----3----|
a -1-----------------1-----------------0-----------------1----------------|
E ------------------------------------------------------------------------|

e ------------------------------------------------------------------------|
b ---------3-----------------3-----------------3-----------------3--------|
g -----3-----3---3-------3-----3---3-------3-----3---3-------3-----3---3--|
d ---3---3-----3-------3---3-----3-------3---3-----3-------3---3-----3----|
a -------------------------------------0-----------------0----------------|
E -3-----------------3----------------------------------------------------|

and at the end..

e ----
b -3--
g -3--
d -3--
a -1--
E ----


love from scott
Добавлено: 29.06.2012
Другие материалы по этой песне:
  • Аккорды и текст

Страница создана 29.06.2012
http://primanota.ru/boy-kill-boy/secret-song-chords.htm
Привет, Гость.
Предлагаем пройти революционный курс по гитаре.
Подарок от PrimaNota.Ru, забирай!