PrimaNota.ru - самый крупный в мире бесплатный архив песенных текстов, аккордов, табулатур и нот


Boy Hits Car - Escape The World - текст песни, таба, видео

Регистрация Запомнить меня
Войти через:  Facebook Google Twitter Vk Yandex Mail.ru

Boy Hits Car - Escape The World - текст песни, таба, видео

Печатать
Просмотров: 219
|--------------------------------------------|
|--5-5-5-8-8-8-10-10-10-5-5-5-7-7-8-8--------|
|--2-2-2-5-5-5-7--7--7--2-2-2-4-4-5-5--------|
|--------------------------------------------|       x however much needed
|--------------------------------------------|
|--------------------------------------------|

|--5-
|--5-
|--7- chords that comes in at about 6 seconds
|--7-
|--5-
|--5-

|------------------------------------------------|
|------------------------------------------------|
|------------------------------------------------|     distortion
|--14-14-xx-12-xxx-12-xx-7-xxx-10-10-10-xx-------|      repeat as needed
|--14-14-xx-12-xxx-12-xx-7-xxx-10-10-10-xx-------|
|--14-14-xx-12-xxx-12-xx-7-xxx-10-10-10-xx-------|


the strumming is probably off but you get the point of it.
ill try to tab the rest later
Добавлено: 09.05.2012
Другие материалы по этой песне:
  • Аккорды и текст

Страница создана 21.04.2012
http://primanota.ru/boy-hits-car/escape-the-world-chords.htm
Привет, Гость.
Предлагаем пройти революционный курс по гитаре.
Подарок от PrimaNota.Ru, забирай!