PrimaNota.ru - самый крупный в мире бесплатный архив песенных текстов, аккордов, табулатур и нот


Boy And Bear - Limit Of Love Acousic - таба, видео

Регистрация Запомнить меня
Войти через:  Facebook Google Twitter Vk Yandex Mail.ru

Boy And Bear - Limit Of Love Acousic - таба, видео

Печатать
Просмотров: 24
-------------------------------------------------------------------------------
                       Limit of Love (Acoustic) - Boy & Bear
-------------------------------------------------------------------------------
Tabbed by: mattroberts

Tuning: Standard

Introduction
e|---------------------------|---------------------------|
B|---------------------------|---------------------------|
G|---------------------------|---------------------------|
D|---------------2-----------|---------------------------|
A|--2h4---2-2h4-----4--2-----|---------2-----------------|
E|------------------------4--|--2-2h4-------4------------|

e|---------------------------|---------------------------|
B|---------------------------|---------------------------|
G|---------------------------|---------------------------|
D|---------------------------|---------------------------|
A|--2h4---2-2h4---2-2h4------|---------2-----------------|
E|-----------------------4---|--2-2h4--------------------|



Verse
Rhythm 
    C#m                         G#m
e|--4------------------------|--4------------------------|
B|--5------------------------|--4------------------------|
G|--6------------------------|--4------------------------|
D|--6------------------------|--6------------------------|
A|--4------------------------|--6------------------------|
E|---------------------------|--4------------------------|
    F#                                                           Variation
e|--2------------------------|--2------------------------|     -2--2--------2------------|   
B|--2------------------------|--2------------------------|     -2--2----4---2------------| 
G|--3------------------------|--3------------------------|     -3--3----4---3------------| 
D|--4------------------------|--4------------------------|     -4--4----4---4------------| 
A|--4------------------------|--4------------------------|     -4--4----2---4------------| 
E|--2------------------------|--2------------------------|     -2--2--------2------------| 

Lead
e|---------------------------|----12--11-----------------|
B|---------------------------|---12-------12--7----------|
G|---------------------------|--13-----------------------|
D|---------------------------|---------------------------|
A|---------------------------|---------------------------|
E|---------------------------|---------------------------|

e|---------------------------|----12--11-----------------|
B|---------------------------|---12-------12--14---------|
G|---------------------------|--13-----------------------|
D|---------------------------|---------------------------|
A|---------------------------|---------------------------|
E|---------------------------|---------------------------|

Chorus
    E                           G#m
e|--0------------------------|--4------------------------|
B|--0------------------------|--4------------------------|
G|--1------------------------|--4------------------------|
D|--2------------------------|--6------------------------|
A|--2------------------------|--6------------------------|
E|--0------------------------|--4------------------------|

    C#m                                                            6 string guitar plays
e|--4------------------------|--4------------------------|     --------9-----9----------| 
B|--5------------------------|--5------------------------|     --------9-----9----------| 
G|--6------------------------|--6------------------------|     --------9-----9----------| 
D|--6------------------------|--6------------------------|     --------11----11---------| 
A|--4------------------------|--4------------------------|     --------11----11---------| 
E|---------------------------|---------------------------|     --7/9---9-----9----------| x2

    E                           G#m
e|--0------------------------|--4------------------------|
B|--0------------------------|--4------------------------|
G|--1------------------------|--4------------------------|
D|--2------------------------|--6------------------------|
A|--2------------------------|--6------------------------|
E|--0------------------------|--4------------------------|

    C#m
e|--2------------------------|--2------------------------|
B|--2------------------------|--2------------------------|
G|--3------------------------|--3------------------------|
D|--4------------------------|--4------------------------|
A|--4------------------------|--4------------------------|
E|--2------------------------|--2------------------------|


e|---------------------------|---------------------------|
B|---------------------------|---------------------------|
G|---------------------------|---------------------------|
D|---------------2-----------|---------------------------|
A|--2h4---2-2h4-----4--2-----|---------2-----------------|
E|------------------------4--|--2-2h4-------4------------|


Verse 2 

Chorus 2 


Solo (verse chords)
e|---------------------------|---------------------------|
B|--5--7--7b9--7--5----------|-----------------5---------|
G|---------------------6-----|--6--4--6------6---6-------|
D|---------------------------|---------------------------|
A|---------------------------|---------------------------|
E|---------------------------|---------------------------| x2


Chorus 3


Ending
e|---------------------------|---------------------------|
B|---------------------------|---------------------------|
G|---------------------------|---------------------------|
D|---------------2-----------|---------------------------|
A|--2h4---2-2h4-----4--2-----|---------2-----------------|
E|------------------------4--|--2-2h4--------------------|



************************************

| /   slide up
| h   hammer-on
| b   Bend

************************************
Добавлено: 28.03.2016
Другие материалы по этой песне:
  • Аккорды и текст

Страница создана 28.03.2016
http://primanota.ru/boy-and-bear/limit-of-love-acousic-chords.htm
Привет, Гость.
Предлагаем пройти революционный курс по гитаре.
Подарок от PrimaNota.Ru, забирай!