PrimaNota.ru - самый крупный в мире бесплатный архив песенных текстов, аккордов, табулатур и нот


Boy And Bear - Feeling Line - бас-таба, видео

Регистрация Запомнить меня
Войти через:  Facebook Google Twitter Vk Yandex Mail.ru

Boy And Bear - Feeling Line - бас-таба, видео

Печатать
Просмотров: 192
FEELING LINE - Boy and Bear
Tabbed By: CSC      Tuning: EADG

Verse 1 (0:05)
G|--------|--------|--------|--------|--------|--------|--------|--------|
D|--------|--------|--------|--------|--------|--------|--------|--------|
A|--------|--------|--------|--------|--------|--------|--------|--------| x2
E|2-2-2-2-|2-2-2-24|5-5-5-5-|5-5-5-5-|5-5-5-5\|2-2-2-2-|2-2-2-24|2-2-2-20|
(0:38)
G|--------|--------|--------|--------|--------|--------|--------|--------|
D|--------|--------|--------|--------|--------|--------|--------|--------|
A|--------|--------|--------|--------|--------|--------|--------|--------|
E|2-2-2-2-|2-2-2-24|5-5-5-5-|5-5-5-5-|5-5-5-5\|2-2-2-2-|2-2-2-2\|0-------|

Post-Chorus (1:08)
G|----|----|----|----|----|
D|----|----|----|----|----|
A|---2|20--|----|----|-220|
E|55--|--2-|2-2-|2455|----|

Verse 2 (1:14)
G|--------|--------|--------|--------|--------|--------|--------|
D|--------|--------|--------|--------|--------|--------|--------|
A|--------|--------|--------|--------|--------|--------|-----024|
E|2-2-2-2-|2-2-2420|5-5-5-5-|5-5-5757|5-5-5750|2-2-2-2-|2-2-2---|
(1:30)
G|--------|--------|--------|--------|--------|--------|--------|--------|
D|--------|--------|--------|--------|--------|--------|-----4--|--------|
A|--------|--------|--------|--------|--------|--------|-------0|24202024|
E|2-2-2-24|2-2-2-20|2-2-2420|5-5-5-5-|5-5-5750|5-5-5750|2-2-2-2-|--------|
(1:45)
G|--------|--------|--------|--------|--------|--------|--------|--------|
D|--------|--------|--------|--------|--------|--------|--------|--------|
A|--------|--------|--------|------74|------57|--------|--------|-----024|
E|2-2-2-24|2-2-2-20|2-2-2420|5-5-57--|5-5-57--|5-5-5750|2-2-2-2-|2-2-2---|

Chorus (2:01)
G|----|----|----|----|----|----|----|----|----|----|----|----|----|----|----|
D|----|----|----|----|----|----|----|----|----|----|----|----|----|----|----|
A|----|----|----|----|----|----|----|----|----|----|4--4|----|5--5|----|5--5|
E|0--0|----|2--2|----|5--5|----|5--5|----|7--7|----|----|----|----|----|----|
(2:17)
G|----|----|----|----|----|------|
D|----|----|----|----|--24|------|
A|----|----|----|----|24--|---220|
E|----|7777|7777|7025|----|55----|
2:22
G|--------|--------|--------|--------|--------|--------|--------|--------|---|
D|--------|---4----|--------|--------|--------|--------|--------|--------|---|
A|--------|-----4--|--------|-----7--|4-4-4-4-|4-4-4-47|--------|--------|---|
E|2-2-2-2-|2-2-2-24|5-5-5-5-|5-555-57|--------|--------|5-5-5-5-|5-5-5757|2>-|

Rest

2:55 
G|--------|--------|--------|--------|--------|--------|--------|--------|
D|--------|---4----|--------|--------|--------|--------|--------|--------|
A|--------|-----4--|--------|-----7--|4-4-4-4-|4-4-4-47|--------|--------|
E|2-2-2-2-|2-2-2-24|5-5-5-5-|5-555-57|--------|--------|5-5-5-5-|5-5-5750|
3:11
G|--------|--------|--------|--------|--------|--------|--------|--------|
D|--------|---4----|--------|--------|--------|--------|--------|--------|
A|--------|-----4--|--------|-----7--|4-4-4-4-|4-4-4-47|--------|------57|
E|2-2-2-2-|2-2-2-24|5-5-5-5-|5-555-57|--------|--------|5-5-5-5>|5-5-57--|
3:27
G|------|--------|--------|--------|--------|--------|--------|--------|
D|------|--------|--------|--------|--------|--------|--------|--------|
A|---220|--------|--------|--------|--------|--------|--------|------24|
E|55----|2-2-2-2-|2-2-2-24|55555555|55555555|55555555|22222222|222225--|
3:43
G|--------|--------|--------|--------|--------|--------|--------|--------|
D|--------|--------|--------|--------|--------|--------|--------|--------|
A|--------|--------|-----7--|-----7--|-----470|4-4-4-4-|5-5-5-5-|5-5-5-5-|
E|0-0-0-0>|2-2-2-2/|5-5-5-57|5-5-5-57|7-7-7---|-----5-5|-----5-7|-----5-7|
4:00
G|--------|---------|------------|------------|--------|--------|--------|
D|------79|---------|------------|12-12-14-14-|--------|--------|--------|
A|7-7-79--|9-9-9-9--|12-12\12-12-|------------|55555555|55555555|47-24---|
E|--------|-----9-10|------------|------------|--------|--------|------25|
4:14
G|--------|---------|
D|------24|---------|
A|----24--|---220---|
E|-025----|55----2>-|
Добавлено: 25.05.2012
Другие материалы по этой песне:
  • Аккорды и текст

Страница создана 25.05.2012
http://primanota.ru/boy-and-bear/feeling-line-chords.htm
Привет, Гость.
Предлагаем пройти революционный курс по гитаре.
Подарок от PrimaNota.Ru, забирай!