PrimaNota.ru - самый крупный в мире бесплатный архив песенных текстов, аккордов, табулатур и нот


Boxed Wine - Feral - таба, видео

Регистрация Запомнить меня
Войти через:  Facebook Google Twitter Vk Yandex Mail.ru

Boxed Wine - Feral - таба, видео

Печатать
Просмотров: 57
Here are the main parts and some of the important lead guitars.

Intro - Lead
|--------------------------------------|
|--------------------------------------|
|---6---9---6---9-----6-7----6-7-------|
|-----7-------7-----4------4-----------|
|--------------------------------------|
|--------------------------------------|


Intro - Rhythm

|-----------------------------------------------------------------------------|
|-----------------------------------------------------------------------------|
|----------66666--------------------------------------------------------------|
|--77777---66666---44444-----77777---44444---66666----------------------------|
|--77777---44444---44444-----77777---44444---66666----------------------------|
|--55555-----------22222-----55555---22222---44444----------------------------|


Intro/Chorus - Rhythm

|-----------------------------------------------------------------------|
|-----------------------------------------------------------------------|
|---------6666----------4444------------6666----------------------------|
|--7777---6666---4444---4444-----7777---6666---4444---6666--------------|
|--7777---4444---4444---2222-----7777---4444---4444---6666--------------|
|--5555----------2222------------5555----------2222---4444--------------|


Verse - Lead

|-----------------------------------------|
|-----------------------------------------|
|---6---66---6---44---6---44--6---4-------|
|-----7--------7--------7-------7---4444--|
|-----------------------------------------|
|-----------------------------------------|


Prechorus - Lead 1

|----------------------------------------------------|
|----------------------------------------------------|
|-------7-7--4-444--6-666--------7-7--4-444----------|
|---7-7----------------------7-7-------------4-444---|
|----------------------------------------------------|
|----------------------------------------------------|


Prechorus - Lead 2

|----------------------------------------------------|
|----------------------------------------------------|
|-------444-66------444-66-------444-66------444-66--|
|---222---------444----------222---------444---------|
|----------------------------------------------------|
|----------------------------------------------------|

Bridge - Rhythm

|-----------------------------------------------------------------------------------|
|-----------------------------------------------------------------------------------|
|--------444--6666---------666--444--------444--6666--6-----------------------------|
|---777--444--6666----777--666--444---777--444--6666--6--4444444---66666666---------|
|---777--222--4444----777--444--222---777--222--4444--4--4444444---66666666---------|
|---555---------------555-------------555----------------2222222---44444444---------|

Bridge - Lead

|---555-777-9999---555-999-7777---555-777-9999---10-9-7-5-7--9-7-5-7----|
|-----------------------------------------------------------------------|
|-----------------------------------------------------------------------|
|-----------------------------------------------------------------------|
|-----------------------------------------------------------------------|
|-----------------------------------------------------------------------|


Good Luck!
Добавлено: 29.07.2015
Вам также может быть интересно:
Другие материалы по этой песне:
  • Аккорды и текст

Страница создана 29.07.2015
http://primanota.ru/boxed-wine/feral-chords.htm
Привет, Гость.
Предлагаем пройти революционный курс по гитаре.
Подарок от PrimaNota.Ru, забирай!