PrimaNota.ru - самый крупный в мире бесплатный архив песенных текстов, аккордов, табулатур и нот


Box Car Racer - Boxcar Racer - таба, видео

Регистрация Запомнить меня
Войти через:  Facebook Google Twitter Vk Yandex Mail.ru

Box Car Racer - Boxcar Racer - таба, видео

Печатать
Просмотров: 168
***************************************************************************
*                          Artist: BOXCAR RACER                           *
*                          Album: Boxcar Racer                            *
*                          Tabbed by: Jose Cruz                           *
***************************************************************************

palm muted = *

#########################    1) I FEEL SO    ##############################

Acustic Intro
1 -----------------------------|
2 -----------------------------|
3 -----------------------------|
4 -----6----4----6----4--------|
5 --7--7-6--6-4--4-6--6--------|
6 -----------------------------|

Intro Pt1
1 ---------| |----|
2 ---------| |----|
3 -22------| |-2--|
4 -22------| |-x--|
5 -00------| |-0--|
6 ---------| |----|

Intro Pt2  
1 --------------------|
2 --------------------|
3 -7\------000-2------|
4 -x >x30--xxx-2------|
5 -5/------000-0------|
6 --------------------|

Intro Pt3
1 ----------------------|
2 ----------------------|   
3 -22222222-9999--------|   
4 -22222222-xxxx--------|   ..........   ........
5 -00000000-7777--------|   |. = down|   |' = up|  
6 ----------------------|   ''''''''''   ''''''''
   .'''.''' .'.'

Intro Pt4 
1 --------------------|
2 --------------------|
3 -222222222-4--------|
4 -222222222-4--------|  ..........   ........
5 -000000000-2--------|  |. = down|   |' = up|
6 --------------------|  ''''''''''   ''''''''
   .'''.'''. '

Verse [Guitar 1]
1 --------------------------|
2 --------------------------|
3 --------------------------|
4 -----6----4----6----4-----|
5 --7--7-6--6-4--4-6--6-----|
6 --------------------------|

Verse [Guitar 2]   (After Guitar 1 play the first 2 times)
(Despues de que la Guitarra 1 toca 2 veces)
1 ------------------|
2 ------------------|
3 ------------------|
4 -99--88--66--88---|
5 -99--88--66--88---|
6 -77--66--44--66---|
   **  **  **  **

Chorus [Guitar 1]
1 ---------------------------------------|
2 ---------------------------------------|
3 -99999999-88888888-66666666-88888888---|
4 -99999999-88888888-66666666-88888888---|
5 -77777777-66666666-44444444-66666666---|
6 ---------------------------------------|

Chorus [Guitar 2]
1 ---------------------------------------|
2 ---------------------------------------|
3 -88888888-99999999-66666666-99999999---|
4 -88888888----------66666666------------|
5 -66666666-77777777-44444444-77777777---|
6 ---------------------------------------|

Interlude Pt1
1 ---------|
2 ---------|
3 -7777----|
4 -7777----|
5 -5555----|
6 ---------|
   ****

Interlude Pt2 [Guitar 1]
1 --------------------------|
2 --------------------------|
3 -2-222-2-222--------------|
4 -2-222-2-222--------------|
5 -0-000-0-000--------------|
6 --------------------------|
     ***   ***

Interlude Pt2 [Guitar 2] (After Guitar 1) | (despues de Guitarra 1)
1 --------------------------|
2 --------------------------|
3 -7777---------------------|
4 -xxxx---------------------|
5 -5555---------------------|
6 --------------------------|

Interlude Pt3 
1 ----------|
2 ----------|
3 -4\-------|
4 -x >x30---|
5 -2/-------|
6 ----------|

SONG ORDER
    Acustic Intro x2
    Intro Pt1 x2
    Intro Pt2
    Intro Pt3 x3
    Intro Pt4
    Intro Pt3 x3
    Intro Pt4
    Verse [Guitar 1 & 2]
    Chorus [Guitar 1 & 2] x2
    Intro Pt3 x3
    Intro Pt4
    Verse [Guitar 1 & 2]
    Chorus [Guitar 1 & 2] x2
    Interlude Pt1  x4
    Interlude Pt2 [Guitar 1 & 2] x4
    Interlude Pt3 x1
    Chorus [Guitar 1 & 2] x4

######################    2) ALL SYSTEM GO    ##############################

Pre-intro [Guitar 1]
1 ------------------------|
2 ------------------------|
3 ------------------------|
4 ------------------------|
5 --77-77-777-777-7777----|
6 --55-55-555-555-5555----|

Intro [Guitar 1]
1 ------------------------|
2 ------------------------|
3 ------666---------------|
4 --777-666-666-77-66-22--|
5 --777-444-666-77-66-22--|
6 --555-----444-55-44-00--|

Intro [Guitar 2]
1 ------------------------|
2 ------------------------|
3 ------------------------|
4 ------666---------------|
5 --777-444-666-77-66-22--|
6 --555-----444-55-44-00--|

Verse [Guitar 1]
1 -----------------------------------------|
2 -----------------------------------------|
3 -----------------------------------------|
4 -7777777777777/1111111111-6/7777-99------|
5 -----------------------------------------|
6 -5555555555555/ 9 9 9 9 9-4/5555-77------|

Chorus [Guitar 1]
1 -----------------------------------------|
2 -----------------------------------------|
3 -77777777-66666666-44444444-22222222-----|
4 -77777777-66666666-44444444-22222222-----|
5 -55555555-44444444-22222222-00000000-----|
6 -----------------------------------------|

Chorus [Guitar 2]
1 -----------------------------------------|
2 -----------------------------------------|
3 -77777777-66666666-44444444-22222222-----|
4 -77777777----------44444444-22222222-----|
5 -55555555-44444444-22222222-00000000-----|
6 -----------------------------------------|

Interlude [Guitar 1]
1 -------------------------------|
2 -------------------------------|
3 -------------------------------|
4 --7776667776667766-------------|
5 -------------------------------|
6 -------------------------------|

Interlude [Guitar 2]
1 -----------------------------------------|
2 -----------------------------------------|
3 --------------------------------444------|
4 -7777777777777777---------------444------|
5 -5555555555555555-777777777777--222------|
6 ------------------555555555555-----------|
   **************** ************

SONG ORDER
 Pre-Intro x2
 intro [Guitar 1 & 2] x4
 Verse [Guitar 1] x4
 Chorus [Guitar 1 & 2] x2
 Pre-Intro x1
 intro [Guitar 1 & 2] x2
 Verse [Guitar 1] x4
 Pre-Intro x1
 Chorus [Guitar 1 & 2] x4
 Interlude [Guitar 1] x8
 Interlude [Guitar 2] x4
 Chorus [Guitar 1 & 2] x4
 Intro [Guitar 1] x2
 Intro [Guitar 1 & 2] x2 -> after Intro [Guitar 1] | despues del intro de la [Guitarra 1]

######################   3) WATCH THE WORLD    ############################

Intro [Guitar 1]
1 -------------------------------------------------------------------|
2 -------------------------------------------------------------------|
3 -4444444444-6666-4444444444-6666-4444444444-888-444-333333-444-----|
4 ------------6666------------6666-----------------------------------|
5 -2222222222-4444-2222222222-4444-2222222222-666-222-111111-222-----|
6 -------------------------------------------------------------------|

Intro [Guitar 2]
1 ------------------------------------------|
2 ------------------------------------------| 
3 -44444444---------------------------------|
4 -----------66666666--4444444444444444-----|
5 -22222222---------------------------------|
6 -----------44444444--2222222222222222-----|

Verse [Guitar 1]
1 ----------------------------------|
2 ----------------------------------|
3 -444---333------------------------|
4 -------------666---444------------|
5 -222---111------------------------|
6 -------------444---666------------|

Verse [Guitar 2]
1 -----2-----|
2 -0---------| 
3 -----------|
4 -----------|  
5 -----------| 
6 -----------|

Chorus [Guitar 1]
1 --------|
2 --------|
3 -4------|  Repeat that chord all chorus | Repetir este acorde todo el coro
4 --------|
5 -2------|
6 --------|

Chorus [Guitar 2]
1 -----------------------------------------|
2 -----------------------------------------|
3 -44444444--------------------------------|
4 ----------66666666-4444444444444444------|
5 -22222222--------------------------------|
6 ----------44444444-2222222222222222------|

Interlude 1 [Guitar 1]
1 -------------------------------|
2 -------------------------------|
3 -888-444-333-4444-44444444-----|
4 -888-444-333-4444-xxxxxxxx-----|
5 -666-222-111-2222-22222222-----|
6 -------------------------------|

Interlude 1 [Guitar 2]
1 -------------------------------|
2 -------------------------------|
3 -888-888-888-8888-88888888-----|
4 -888-888-888-8888-88888888-----|
5 -666-666-666-6666-66666666-----|
6 -------------------------------|

Interlude 2 [Guitar 1]
1 -----------------|
2 -----------------|
3 -4----4---6-4----|
4 ----4---------4--|
5 -----------------|
6 -----------------|

Interlude 2 [Guitar 2]
1 ------------------------------|
2 ------------------------------|
3 -444444444444-666666666666----|
4 ------------------------------|
5 -222222222222-444444444444----|
6 ------------------------------|

SONG ORDER
    Intro [Guitar 1 & 2] x2
    Verse [Guitar1] x4   & verse [Guitar2] x16
    Intro x1
    Verse
    Chorus [Guitar 1]  &  Chorus [Guitar 2] x4
    Interlude 1 [Guitar 1 & 2] x2
    Interlude 2 [Guitar 1] x8  & Interlude [Guitar 2] x4
    Chorus
##########################   4) TINY VOICES   #############################

Intro [Guitar 1]
1 ----------------------------|
2 -----------99---------------|
3 -2-2222222-88-7--8888/77----|
4 -2-2222222-66-7--8888/77----| 
5 -0-0000000----5--6666/55----|
6 ----------------------------| 
     *******

Verse [Guitar 1]
1 ---------------------|
2 ---------------------|
3 -222222222222222-----|
4 -222222222222222-----|
5 -000000000000000-----|
6 ---------------------|

Chorus                               Post-chorus 
1 ---------------------------------| |-----|
2 --------99-----------------------| |-----|
3 ----------9-9999-----------------| |--x--|
4 -222222-----9999-6666666-7777777-| |--x--|
5 -222222-----7777-6666666-7777777-| |--x--|
6 -000000----------4444444-5555555-| |--x--|

Interlude 1 [Guitar 1]
1 ---------------------------------|
2 ---------------------------------|
3 ---------------------------------|
4 -----2-----2---------4-----4-----| x2
5 ---2-----2-----2---2-----2-----2-|
6 -0-----0-----0---0-----0-----0---|

1 ----------------------------------|
2 ----------------------------------|
3 ----------------------------------|
4 -----2-----2---------4-----4------| x2
5 ---2-----2-----2---2-----2-----2--|
6 -5-----5-----5---5-----5-----5----|

Interlude 1 [Guitar 2]
1 -9--------8-------9---------9-|
2 ------------------------------|
3 ------------------------------|
4 ------------------------------|
5 ------------------------------|
6 ------------------------------|

Interlude 2 [Guitar 2]
1 ---------------------------|
2 ---------------------------|
3 ---------------------------|
4 ---------------------------|
5 ---------------------------|
6 -0-------4-------5------5--|
SONG ORDER
 intro x4
 verse x8
 chorus x2
 post-chorus x30
 intro x2
 verse x4
 chorus x2
 post-chorus x30
 interlude 1 [Guitar 1 & 2] x2
 interlude 2 [Guitar 2] x2
 interlude 1 [Guitar 1 & 2] x2
 chorus x4
 post-chorus x30
########################   5) CAT LIKE THIEF   ############################

Riff A [Guitar 1]
1 -----------------------------------------------------|
2 -----------------------------------------------------|
3 -----------------------------------------------------|
4 ----7-----7-----7-----7-----7-----7-----7-----7------|
5 -00---000---044---444---455---555---555---555---5----|
6 -----------------------------------------------------|
Guitar 1 play the same thing for the rest of the song. |
Guitarra 1 repite lo mismo toda la cancion.

Riff A [Guitar 2]
1 -------|
2 -10----|
3 --9----|
4 --7----|
5 -------|
6 -------|
Play this chord when [Guitar 1] play 7. | tocar esto cundo [Guitarra 1] toca 7.

Chorus [Guitar 2]
1 -------|
2 -------|
3 --9----|
4 --x----|
5 --7----|
6 -------|
Play this when the [Guitar 1] play the chorus. | Esto cuando [Guitarra 1] toca el coro.

Final Chorus [Guitar2]
1 ----11-----11---8---8---8---8-----|
2 -99----999----9---9---9---9---9---|
3 ----------------------------------|
4 ----------------------------------|
5 ----------------------------------|
6 ----------------------------------|
Play this on the final chorus. | Tocar esto en le ultimo coro.

#############################   6) AND I   ################################

Intro [Guitar 1]
1 ------------------------------------------------------------|
2 ------------------------------------------------------------|
3 -1111111111111111111111--777--9999--777---11111111--777-99--|
4 ------------------------------------------------------------|
5 -9 9 9 9 9 9 9 9 9 9 9---555--7777--555---9 9 9 9---555-77--|
6 ------------------------------------------------------------|

Intro [Guitar 2]
1 ------------------------------------------------------|
2 ------------------------------------------------------|
3 -11111111111111111111111111111111-99999999-77777777---|
4 -11111111111111111111111111111111-99999999-77777777---|
5 -9 9 9 9 9 9 9 9 9 9 9 9 9 9 9 9--77777777-55555555---|
6 ------------------------------------------------------|

Verse [Guitar 1]
1 -----|
2 -----|
3 --7--|
4 -----|
5 --5--|
6 -----|

Chorus [Guitar 1]
1 ------------------------------------------|
2 ------------------------------------------|
3 --777777777777777-2-44444444--------------|
4 ------------------2-44444444--55555555----|
5 --555555555555555-0-22222222--55555555----|
6 ------------------------------33333333----|

Chorus [Guitar 2]
1 ------------------------------------------|
2 ------------------------------------------|
3 --7777777777777777--44444444--------------|
4 --7777777777777777--44444444--55555555----|
5 --5555555555555555--22222222--55555555----|
6 ------------------------------33333333----|

Interlude [Guitar 1]
1 ---------------------------------------|
2 ---------------------------------------|
3 ---------------------------------------|
4 --7-7-777------------94-4-444----------|
5 --5-5-555------------72-2-222----------|
6 ---------------------------------------|

Interlude [Guitar 2]
1 ---------------------------------------|
2 ---------------------------------------|
3 ---------------------------------------|
4 -----------79-9-999------------4-------|
5 -----------57-7-777------------25-555--|
6 --------------------------------3-333--|

Final chorus Pt1 [Guitar 2]
1 -----|
2 -----|
3 --7--|
4 --7--|
5 --5--|
6 -----|

Final chorus Pt2 [Guitar 2]
1 -----------------------------------------------|
2 -----------------------------------------------|
3 --77777777777777777-99999999-1010101010101010--|
4 --77777777777777777-99999999-1010101010101010--|
5 --55555555555555555-77777777-8 8 8 8 8 8 8 8---|
6 -----------------------------------------------|

SONG ORDER
 Intro x4
 Intro [Guitar 1 & 2] x2
 verse xmany times | muchas veces
 Chorus [Guitar 1 & 2] x2
 Verse xmany times | muchas veces
 Chorus [Guitar 1 & 2] x4
 Interlude [Guitar 1 & 2] x4 
 Chorus [Guitar 1 & 2] x4
 Verse xall the final chorus | todo el coro final
 Final chorus Pt1 [Guitar 2] | i dont know how many times, listen the song
no se cuantas veces, escucha la cancion
 Chorus [Guitar 2] x1
 final chorus Pt2 [Guitar 2]

#########################   7)LETTERS TO GOD   #############################

Verse
1 ---------------------------|
2 ---------------------------|
3 -000000000------000000000--|
4 -222222222-2/4--555555555--|
5 -222222222-2/4--555555555--|
6 -000000000-0/2--333333333--|

Chorus
e|----------------------------------------------------|
B|----------------------------------------------------|
G|--------------555555555555--------------------------|
D|-222222222222-555555555555-555555555555-77777777777-|
A|-222222222222-333333333333-555555555555-77777777777-|
E|-000000000000--------------333333333333-55555555555-|

Interlude Pt2
1 ----------------------------------------------------|
2 ----------------------------------------------------|
3 --------------555555555555-777777777777-99999999999-|
4 -222222222222-555555555555-777777777777-99999999999-|
5 -222222222222-333333333333-555555555555-77777777777-|
6 -000000000000---------------------------------------|

Heavy Guitar Pt1
1 ----------------------------|
2 ----------------------------|
3 ----------------------------|
4 -2222-2222-2/4-5555-5555-55-|
5 -2222-2222-2/4-5555-5555-55-|
6 -0000-0000-0/2-3333-3333-33-|

Heavy Guitar Pt2
1 ----------------------------|
2 ----------------------------|
3 ----------------------------|
4 -2222222222-2/4-55555555555-|
5 -2222222222-2/4-55555555555-|
6 -0000000000-0/2-33333333333-|
SONG ORDER
 Intro = verse x2
 Verse x4
 Chorus x2
 Intro = Verse x2
 Verse x4
 Chorus x2
 Chorus = interlude Pt1 x1
 Interlude Pt2 x1
 Chorus = interlude Pt1 x1
 Interlude Pt2 x1
 Heavy Guitar Pt1 x2
 Heavy Guitar Pt2 x2
 Chorus x4 Whit heavy distorn | con distorcion pesada
###########################   8)MY FIRST PUNK SONG   #########################

Riff A
1 ------------------------|
2 ------------------------|
3 -----------666------ 7--|
4 --77777777-666--66---7--|
5 --77777777-444--66---5--|
6 --55555555------44------|

Riff B
1 ----------------------|
2 ----------------------|
3 ----------66----------|
4 --2222222-66--66---7--|
5 --2222222-44--66---7--|
6 --0000000---- 44---5--|

Riff C 
1 -----|
2 -----|
3 -----|
4 --2--|
5 --2--|
6 --0--|

SONG ORDER
 Riff A x6
 Riff B x4
 Riff A x2
 Riff C xmany times | muchas veces
 Riff A x2
 Riff C xmany times | muchas veces
################################   9) SORROW   #############################

Intro
1 ---------------------------|
2 ---------------------------|
3 ---------------------------|
4 ------2------------2-------|
5 -5-4-0-0-5-4--5-4-0-0-5-4--|
6 ---------------------------|

Verse [Guitar 1]
1 ---------------------------------------|
2 ---------------------------------------|
3 ---------------------------------------|
4 --77777777-66666666-44444444-66666666--|
5 ---------------------------------------|
6 --55555555-44444444-22222222-44444444--|

Chorus [Guitar 1]
1 ---------------------------------------|
2 ---------------------------------------|
3 ---------------------------------------|
4 --77777777-66666666-44444444-66666666--|
5 --77777777-66666666-44444444-66666666--|
6 --55555555-44444444-22222222-44444444--|

Chorus [Guitar 2]
1 ---------------------------------------|
2 ---------------------------------------|
3 ---------------------------------------|
4 --77778888-77777777-77778888-66666666--|
5 --7777-----77777777-7777-----66666666--|
6 --55556666-55555555-55556666-44444444--|

Interlude [Guitar 1]
1 -----------------------------------------|
2 -----------------------------------------|
3 --454-454-454-474------------------------|
4 -----5---5---5---5-----------------------|
5 -----------------------------------------|
6 -----------------------------------------|

SONG ORDER
 Intro X8
 verse x2
 intro x6
 verse x2
 Chorus [Guitar 1 & 2] x2
 intro x6
 verse x2
 Chorus x4
 interlude xall interlude, 8 times (i think) | por todo el intermedio, son 8 veces (creo)
 chorus x4
###############################   10) THERE IS   ########################## 

Intro [Guitar 1]
1 ----------------------------------------------------|
2 ----------------------------------------------------|
3 -888888888888-666666666666-444444444444-66666-33333-|
4 -888888888888-666666666666-444444444444-66666-33333-|    ..........   ........  
5 -666666666666-444444444444-222222222222-44444-11111-|    |. = down|   |' = up|
6 ----------------------------------------------------|    ''''''''''   ''''''''
   ..''..'''.'. ..''..'''.'. ..''..'''.'. ..''. ..'.. 
Riff A [Guitar 2]
1 ---------------|
2 ---------------|
3 -444444444444--|
4 -444444444444--|
5 -222222222222--|
6 ---------------|
   ..''..'''.'.
Verse [Guitar 1]
1 -------------------------------------------------|
2 -------------------------------------------------|
3 -44444444444-44444444444-44444444444-44444444444-|
4 -44444444444-44444444444-44444444444-44444444444-|
5 -22222222222-------------------------------------|
6 -------------22222222222-44444444444-00000000000-|
   ..''..''.'. ..''..''.'. ..''..''.'. ..''..''.'.
Chorus [Guitar 1]
1 -------------------------------------------------|
2 -------------------------------------------------|
3 -44444444444-44444444444-44444444444-44444444444-|
4 -44444444444-44444444444-44444444444-44444444444-|
5 -22222222222-------------------------------------|
6 -------------22222222222-44444444444-22222222222-|
   ..''..''.'. ..''..''.'. ..''..''.'. ..''..''.'.
Chorus [Guitar 2]
1 -------------|
2 -------2-----|
3 -4-4-4----4--|
4 -------------|
5 -------------|
6 -------------|

Interlude [Guitar 1]
1 ------------------------------------------------------------|
2 ------------------------------------------------------------|
3 -88888888888-99999999999-1111111111111111111111-99999999999-|
4 -88888888888-99999999999-1111111111111111111111-99999999999-|
5 -66666666666-77777777777-9 9 9 9 9 9 9 9 9 9 9--77777777777-|
6 ------------------------------------------------------------|

1 --------------------------------------------------|
2 --------------------------------------------------|
3 -88888888888-99999999999-88888888888-66666666666--|
4 -88888888888-99999999999-88888888888-66666666666--|
5 -66666666666-77777777777-66666666666-44444444444--|
6 --------------------------------------------------|
 
Final chorus [Guitar 1]
1 -------------------------|
2 -------------------------|
3 -88888888888-66666666666-|
4 -88888888888-66666666666-|
5 -66666666666-44444444444-|
6 -------------------------|
   ..''..''.'. .''..''.'.
SONG ORDER
 intro [Guitar 1] x2
 intro [Guitar 1] x1  &  riff A [Guitar 2] x4
 verse [Guitar 1] x4  &  riff A [Guitar 2] x16
 chorus [Guitar 1] x4  &  Chorus [Guitar 2] x8
 intro [Guitar 1] x2  &  riff A [Guitar 2] x8
 verse [Guitar 1] x4  &  riff A [Guitar 2] x16
 chorus [Guitar 1] x4  &  Chorus [Guitar 2] x8
 interlude [Guitar 1] x1  &  riff A [Guitar 2] x8
 chorus [Guitar 1] x2
 final Chorus [Guitar 1] x4  &  chorus [Guitar 2] x8
##########################   11) THE END WHIT YOU   ########################### 

Intro [Guitar 1]
1 -----|
2 -----|
3 -6---|
4 -----| 
5 -4---|
6 -----|

Intro 2 [Guitar 1]
1 ---------------------|
2 ---------------------|
3 ------------------6--|
4 -444-6-77777--6-7----|
5 ------------------4--|
6 -222-4-55555--4-5----|

Intro 2 [Guitar 2]
1 ----------------------|
2 ----------------------|
3 -------------------6--|
4 -444-6-7777777777--6--|
5 -444-6-7777777777--4--|
6 -222-4-5555555555-----|

Verse [Guitar 1]
1 ---------------------|
2 ---------------------|
3 ---------------------|
4 --------------77-----|
5 -77777777-444-55-76--|
6 -55555555-222----54--|
   ******** *** ** **

Chorus [Guitar 1]
1 ---------------------------------------|
2 ---------------------------------------|
3 --------------------------------7777---|
4 -7777777777777777-66666666-4444-7777---|
5 -7777777777777777-66666666-4444-5555---|
6 -5555555555555555-44444444-2222--------|

Chorus [Guitar 2]
1 ---------------------------------------|
2 ---------------------------------------|
3 --------------------------------7777---|
4 -7777777777777777-77777777-4444-7777---|
5 -7777777777777777-77777777-4444-5555---|
6 -5555555555555555-55555555-2222--------|

Interlude [Guitar 1]
1 ------------------------|
2 ------------------------|
3 ------------------------|
4 ------------------------|
5 -------------4-4-4-5-2--|
6 -2-2-2-4-5--------------|

Interlude [Guitar 2]
1 -----------------------|
2 -----------------------|
3 -----------------------|
4 -----------------------|
5 -4-----------7---------|
6 -2-----------5---------|

SONG ORDER
 intro x30
 intro 2 x1
 intro 2 [Guitar 1 & 2] x3
 verse x8
 intro x15
 chorus x2
 intro 2 [Guitar 1 & 2] x2
 verse x8
 intro x15
 chorus x4
 interlude [Guitar 1 & 2] x6
 chorus x4
 intro 2 x30
##############################   12) ELEVATOR ############################

Riff A
1 -------------------------------------------|
2 -------------------------------0-----------| Repeat that all song | repetir esto toda la cancion
3 -----0-----0----0--0-0 0 0 0 0 0-00-00-----|
4 -----4/5---5----5--5/10101010109-99-99-----|
5 -------------------------------------------|
6 -33333---3---33---3--8 8 8 8 8 8-88-77-----|

##########################   13) INSTRUMENTAL   ###########################

Riff A [Guitar 1]
1 ---------------------------------------|
2 ---------------------------------------|
3 ---------------------------------------|
4 --------66--------66--------66---------|
5 -777777-44-666666-44-444444-44-222222--|
6 -555555----444444----222222----000000--|
   ****** ** ****** ** ****** ** ******

Riff B [Guitar 1]
1 -------------------------------------------|
2 -------------------------------------------|
3 ------6666------7777-----------------------|
4 -7777-6666-6666-7777-4444-7777--6666-8888--|
5 -7777-4444-6666-5555-4444-7777--6666-8888--|
6 -5555------4444------2222-5555--4444-6666--|

Riff B [Guitar 2]
1 -------------------------------------|
2 -------------------------------------|
3 -------------------------------------|
4 -777-------666------444--------666---|
5 -777-------666------444--------666---|
6 -555-------444------222--------444---|

SONG ORDER
 riff A x4
 riff B x2
 riff A x4
 riff B x2
 riff A x2
 riff B x4
***************************************************************************
it's right?. | 
Добавлено: 12.01.2014
Другие материалы по этой песне:
  • Аккорды и текст

Страница создана 12.01.2014
http://primanota.ru/box-car-racer/boxcar-racer-chords.htm
Привет, Гость.
Предлагаем пройти революционный курс по гитаре.
Подарок от PrimaNota.Ru, забирай!