PrimaNota.ru - самый крупный в мире бесплатный архив песенных текстов, аккордов, табулатур и нот


Bowling For Soup - Epiphany - текст песни, таба, видео

Регистрация Запомнить меня
Войти через:  Facebook Google Twitter Vk Yandex Mail.ru

Bowling For Soup - Epiphany - текст песни, таба, видео

Печатать
Просмотров: 218
-----------------------------------------------------------------
Epiphany - Bowling For Soup
-----------------------------------------------------------------
Tabbed by: Bair
Email: bair_morritt@hotmail.com
Tuning: Standard

Intro:
e|---------------------------------------------------------------|
B|---------------------------------------------------------------|
G|--9------------------------------------------------------------|
D|--9--9--7--9---------------------------------------------------|
A|--7--9--7--9--(X2)---------------------------------------------|
E|-----7--5--7---------------------------------------------------|

Verse:
e|---------------------------------|------------------------------|
B|---------------------------------|------------------------------|
G|--9------------------------------|-9----------------------------|
D|--9-(Let-Ring)--7------------(X2)|-9-(Let-Ring)-99999--77777----|
A|--7-------------7-(Let-Ring)-----|-7------------99999--77777----|
E|----------------5----------------|--------------77777--55555----|
"Stop before you get me started...."

Pre-Chorus:
e|---------------------------------------------------------------|
B|---------------------------------------------------------------|
G|--9------------------------------------------------------------|
D|--9--9--7--9--------77777777--99999999-------------------------|
A|--7--9--7--9--(X2)--77777777--99999999-------------------------|
E|-----7--5--7--------55555555--77777777-------------------------|
"They'res a picture of a girl somewhere...."

Chorus:
e|---------------------------------------------------------------|
B|---------------------------------------------------------------|
G|------44--22--44-------22------4444--22222222--44444444--------|
D|--22--44--22--44--(X2)-22--22--4444--22222222--44444444--------|
A|--22--22--00--22-------00--22--2222--00000000--22222222--------|
E|--00-----------------------00----------------------------------|
"All I ever wanted was a little...."

Post-Chorus:
e|---------------------------------------------------------------|
B|---------------------------------------------------------------|
G|-9-999---------------------------------------------------------|
D|-9-999--9-999--7-777-7-777-------------------------------------|
A|-7-777--9-999--7-777-7-777-------------------------------------|
E|--------7-777--5-555-5-555-------------------------------------|

Bridge:
e|---------------------------------------------------------------|
B|---------------------------------------------------------------|
G|--------2222--4444--------2-----2--4---------------------------|
D|--4--2--2222--4444--(X2)--2--2--2--4---------------------------|
A|--4--2--0000--2222--------0--2--0--2---------------------------|
E|--2--0-----------------------0---------------------------------|
"Are you still at home...."
Добавлено: 25.05.2012
Другие материалы по этой песне:
  • Аккорды и текст

Страница создана 25.05.2012
http://primanota.ru/bowling-for-soup/epiphany-chords.htm
Привет, Гость.
Предлагаем пройти революционный курс по гитаре.
Подарок от PrimaNota.Ru, забирай!