PrimaNota.ru - самый крупный в мире бесплатный архив песенных текстов, аккордов, табулатур и нот


Bowling For Soup - ...Baby One More Time - текст песни, таба, бас-таба, видео

Регистрация Запомнить меня
Войти через:  Facebook Google Twitter Vk Yandex Mail.ru

Bowling For Soup - ...Baby One More Time - текст песни, таба, бас-таба, видео

Печатать
Просмотров: 124
Авторы музыки: Max Martin
Авторы текста: Max Martin
Intro Part 1 (light distortion)

e|------------------------------------|
B|------------------------------------|
G|-4-------------7--------------------|
D|-4-(x8)-4------7-(x8)-2------4------|
A|-2------4-(x8)-5------2-(x4)-4-(x4)-|
E|--------2-------------0------2------|

Intro Part 2 (distorted)

e|---------------------------------------------------------|
B|---------------------------------------------------------|
G|-4------3-4-6-6-6-6-6-6-7------9-11-12-11-11-11-11-11-11-|
D|-x-(x8)-x-x-x-x-x-x-x-x-x-(x8)-x--x--x--x--x--x--x--x--x-|
A|-2------1-2-4-4-4-4-4-4-5------7--9-10--9--9--9--9--9--9-|
E|---------------------------------------------------------|

                          ^ only the 5x7 chord 8 times

Verse 1

e|------------------------------------|
B|------------------------------------|
G|-4~~~----------7--------------------|  (x1)
D|-4~~~----------7-(x8)-2------4------|
A|-2~~~----------5------2-(x4)-4-(x4)-|
E|----------------------0------2------|

e|------------------------------------|
B|------------------------------------|
G|-4-------------7--------------------|  (x2)
D|-4-(x8)-4------7-(x8)-2------4------|
A|-2------4-(x8)-5------2-(x4)-4-(x4)-|
E|--------2-------------0------2------|

Chorus

e|------------------------------------|
B|------------------------------------|
G|-4-------------7--------------------|  (x2)
D|-4-(x8)-4------7-(x8)-2------4------|
A|-2------4-(x8)-5------2-(x4)-4-(x4)-|
E|--------2-------------0------2------|

e|------|
B|------|
G|--9\--|
D|--9\--|
A|--7\--|
E|------|

Verse 2

e|------------------------------------|
B|------------------------------------|
G|-4-------------7--------------------|
D|-4-(x8)-4------7-(x8)-2------4------|
A|-2------4-(x8)-5------2-(x4)-4-(x4)-|
E|--------2-------------0------2------|
   *      *      *      *      *



e|----------------------------------------------------------------------|
B|----------------------------------------------------------------------|
G|-4-4-4-4-4-4-4-4-------------------7-7-7-7-7-7-7-7--------------------|
D|-4-4-4-4-4-4-4-4--4-4-4-4-4-4-4-4--7-7-7-7-7-7-7-7---2-2-2-2-4-4-4-4--|
A|-2-2-2-2-2-2-2-2--4-4-4-4-4-4-4-4--5-5-5-5-5-5-5-5---2-2-2-2-4-4-4-4--|
E|------------------2-2-2-2-2-2-2-2--------------------0-0-0-0-2-2-2-2--|
   * *   * * *   *  * *   * * *   *  * *   * * *   *   *

e|------------------------------------|
B|------------------------------------|
G|-4-------------7--------------------| 
D|-4-(x8)-4------7-(x8)-2------4------|
A|-2------4-(x8)-5------2-(x4)-4-(x4)-|
E|--------2-------------0------2------|

Chorus

e|------------------------------------|
B|------------------------------------|
G|-4-------------7--------------------|  (x2)
D|-4-(x8)-4------7-(x8)-2------4------|
A|-2------4-(x8)-5------2-(x4)-4-(x4)-|
E|--------2-------------0------2------|

e|------|
B|------|
G|--9\--|
D|--9\--|
A|--7\--|
E|------|

Bass Interlude, then:

e|---------------|
B|---------------|
G|-4-------------| 
D|-4-(x8)-4------|
A|-2------4-(x8)-|
E|--------2------|
   *      *

e|------------------------------------|
B|------------------------------------|
G|-4-------------7--------------------|  
D|-4-(x8)-4------7-(x8)-2------4------|
A|-2------4-(x8)-5------2-(x4)-4-(x4)-|
E|--------2-------------0------2------|
   *      *      *      *      *

e|------------------------------------|
B|------------------------------------|
G|------------------------------------|
D|-5------7------5------2------4------|
A|-5-(x8)-7-(x8)-5-(x8)-2-(x4)-4-(x4)-|
E|-3------5------3------0------2------|
   *      *      *     

e|------------------------------------|
B|------------------------------------|
G|-4-------------7--------------------|  
D|-4-(x8)-4------7-(x8)-2------4------|
A|-2------4-(x8)-5------2-(x4)-4-(x4)-|
E|--------2-------------0------2------|

e|------------------------------------|
B|------------------------------------|
G|------------------------------------|
D|-5------7------5------2------4------|
A|-5-(x8)-7-(x8)-5-(x8)-2------4------|
E|-3------5------3------0------2------|

Chorus

e|------------------------------------|
B|------------------------------------|
G|-4-------------7--------------------|  (x2)  
D|-4-(x8)-4------7-(x8)-2------4------|
A|-2------4-(x8)-5------2-(x4)-4-(x4)-|
E|--------2-------------0------2------|

e|------|
B|------|
G|--9\--|
D|--9\--|
A|--7\--|
E|------|



Добавлено: 13.11.2013
Другие материалы по этой песне:
  • Аккорды и текст

Страница создана 19.03.2012
http://primanota.ru/bowling-for-soup/baby-one-more-time-chords.htm
Привет, Гость.
Предлагаем пройти революционный курс по гитаре.
Подарок от PrimaNota.Ru, забирай!