PrimaNota.ru - самый крупный в мире бесплатный архив песенных текстов, аккордов, табулатур и нот


Bowling For Soup - Amateur Night - таба, видео

Регистрация Запомнить меня
Войти через:  Facebook Google Twitter Vk Yandex Mail.ru

Bowling For Soup - Amateur Night - таба, видео

Печатать
Просмотров: 135
Уроки эстрадного вокала в Санкт-Петербурге
AMATEUR NIGHT - Bowling For Soup


NOTE: you might want to strum the chords faster then I tabbed them out.


tabber: paul westerink
mail: paul11ajax@hotmail.com

Tuning:
(Lead) Guitar 1: Standard (E A D G B E)
(Rhythm) Guitar 2: Standard (E A D G B E)

Legenda
| / slide up
| \ slide down
| ~ let it ring

intro - guitar 2
|----------------------------------------------------------------------|
|----------------------------------------------------------------------|
|-----7-7-7-7-7-7-7-7--------------------------------------------------|
|--7\-7-7-7-7-7-7-7-7-7-7-7-7-7-7-7-7-5-5-5-5-5-5-5-5-5-5-5-5-5-5-5-5--|
|--7\-5-5-5-5-5-5-5-5-7-7-7-7-7-7-7-7-5-5-5-5-5-5-5-5-5-5-5-5-5-5-5-5--|
|--5\-----------------5-5-5-5-5-5-5-5-3-3-3-3-3-3-3-3-3-3-3-3-3-3-3-3--|x3


intro - guitar 1
|-------------12-12--------------------12-12--------------------12-12----------|
|----15-15-15-------15-15-15--15-15-15-------15-15-15--15-15-15-------15-15-15-|
|------------------------------------------------------------------------------|
|------------------------------------------------------------------------------|
|------------------------------------------------------------------------------|
|------------------------------------------------------------------------------|
|
|----15-15-15-15-14-14-14-14-|
|----------------------------|
|----------------------------|
|----------------------------|
|----------------------------|
|----------------------------|x3

then play this:
|-------------12-12----------15---14--------------------12--|
|----15-15-15-------15-15-15-----------10/12\10---15-15-----|
|-----------------------------------------------------------|
|-----------------------------------------------------------|
|-----------------------------------------------------------|
|-----------------------------------------------------------|
intro - guitar 2
|-----------------------------------------------------------|
|-----------------------------------------------------------|
|----7------------------------------------------------------|
|----7-----------------------7----------5---------5--5--7---|
|----5-----------------------7----------5---------5--5--7---|
|----------------------------5----------3---------3--3--5---|


verse 1 - guitar 2
|-----------------------------------------------------------|
|-----------------------------------------------------------|
|--7--7-------------------------------7--7---9--9-----------|
|--7--7---7--7---9--9---7--7---5--5---7--7---9--9---7--7----|
|--5--5---7--7---9--9---7--7---5--5---5--5---7--7---7--7----|
|---------5--5---7--7---5--5---3--3-----------------5--5----|x3

|-----------------------------|
|-----------------------------|
|--7--7-----------------------|
|--7--7---7--7---9--9---7--7--|
|--5--5---7--7---9--9---7--7--|
|---------5--5---7--7---5--5--|


prechorus - guitar 2
|------------|
|------------|
|------------|
|--5~---7~---|
|--5~---7~---|
|--3~---5~---|


chorus - guitar 2 
|-------------------------------------------------------------------|
|-------------------------------------------------------------------|
|----------9-9-9-9---------7-7-7-7---------9-9-9-9------------------|
|--9-9-9-9-9-9-9-9-7-7-7-7-7-7-7-7-9-9-9-9-9-9-9-9-7-7-7-7-7-7-7-7--|
|--9-9-9-9-7-7-7-7-7-7-7-7-5-5-5-5-9-9-9-9-7-7-7-7-7-7-7-7-7-7-7-7--|
|--7-7-7-7---------5-5-5-5---------7-7-7-7---------5-5-5-5-5-5-5-5--|x2


verse 2 - guitar 2
|-----------------------------------------------------------|
|-----------------------------------------------------------|
|--7--7-------------------------------7--7---9--9-----------|
|--7--7---7--7---9--9---7--7---5--5---7--7---9--9---7--7----|
|--5--5---7--7---9--9---7--7---5--5---5--5---7--7---7--7----|
|---------5--5---7--7---5--5---3--3-----------------5--5----|x2

|-----------------------------|
|-----------------------------|
|--7--7-----------------------|
|--7--7---7--7---9--9---7--7--|
|--5--5---7--7---9--9---7--7--|
|---------5--5---7--7---5--5--|


prechorus
|----------------------|
|----------------------|
|----------------------|
|--3~---2~---8~---7~---|
|--3~---2~---8~---7~---|
|--1~---0~---6~---5~---|


chorus - guitar 2 
|-------------------------------------------------------------------|
|-------------------------------------------------------------------|
|----------9-9-9-9---------7-7-7-7---------9-9-9-9------------------|
|--9-9-9-9-9-9-9-9-7-7-7-7-7-7-7-7-9-9-9-9-9-9-9-9-7-7-7-7-7-7-7-7--|
|--9-9-9-9-7-7-7-7-7-7-7-7-5-5-5-5-9-9-9-9-7-7-7-7-7-7-7-7-7-7-7-7--|
|--7-7-7-7---------5-5-5-5---------7-7-7-7---------5-5-5-5-5-5-5-5--|x2


bridge - guitar 2
|------------------------------------|
|------------------------------------|
|--7-7-7-7---------------------------|
|--7-7-7-7--7-7-7-7--5-5-5-5-5-5-5-5-|
|--5-5-5-5--7-7-7-7--5-5-5-5-5-5-5-5-|
|-----------5-5-5-5--3-3-3-3-3-3-3-3-|x4



chorus
|-------------------------------------------------------------------|
|-------------------------------------------------------------------|
|----------9-9-9-9---------7-7-7-7---------9-9-9-9------------------|
|--9-9-9-9-9-9-9-9-7-7-7-7-7-7-7-7-9-9-9-9-9-9-9-9-7-7-7-7-7-7-7-7--|
|--9-9-9-9-7-7-7-7-7-7-7-7-5-5-5-5-9-9-9-9-7-7-7-7-7-7-7-7-7-7-7-7--|
|--7-7-7-7---------5-5-5-5---------7-7-7-7---------5-5-5-5-5-5-5-5--|x2



outro - guitar 2
|--------------------------------------------------------------------|
|--------------------------------------------------------------------|
|---7-7-7-7-7-7-7-7--------------------------------------------------|
|---7-7-7-7-7-7-7-7-7-7-7-7-7-7-7-7-5-5-5-5-5-5-5-5-5-5-5-5-5-5-5-5--|
|---5-5-5-5-5-5-5-5-7-7-7-7-7-7-7-7-5-5-5-5-5-5-5-5-5-5-5-5-5-5-5-5--|
|-------------------5-5-5-5-5-5-5-5-3-3-3-3-3-3-3-3-3-3-3-3-3-3-3-3--|x3

|----------------------|
|----------------------|
|----7-----------------|
|----7----7----5~------|
|----5----7----5~------|
|---------5----3~------|

outro - guitar 1
|-------------12-12--------------------12-12--------------------12-12----------|
|----15-15-15-------15-15-15--15-15-15-------15-15-15--15-15-15-------15-15-15-|
|------------------------------------------------------------------------------|
|------------------------------------------------------------------------------|
|------------------------------------------------------------------------------|
|------------------------------------------------------------------------------|
|
|----15-15-15-15-14-14-14-14-|
|----------------------------|
|----------------------------|
|----------------------------|
|----------------------------|
|----------------------------|x4

|----------12-12--------------------12-12--------------------12-12--------------------12-12------|
|-15-15-15-------15-15-15--15-15-15-------15-15-15--15-15-15-------15-15-15--15-15-15-------15-15|
|------------------------------------------------------------------------------------------------|
|------------------------------------------------------------------------------------------------|
|------------------------------------------------------------------------------------------------|
|------------------------------------------------------------------------------------------------|


please leave a message and rate ;-)
check out my profile for more rock songs.





Добавлено: 01.07.2013
Другие материалы по этой песне:
  • Аккорды и текст

Страница создана 01.07.2013
http://primanota.ru/bowling-for-soup/amateur-night-chords.htm
Привет, Гость.
Предлагаем пройти революционный курс по гитаре.
Подарок от PrimaNota.Ru, забирай!