PrimaNota.ru - самый крупный в мире бесплатный архив песенных текстов, аккордов, табулатур и нот


Bowie, David - Sweet Head - текст песни, таба, видео

Регистрация Запомнить меня
Войти через:  Facebook Google Twitter Vk Yandex Mail.ru

Bowie, David - Sweet Head - текст песни, таба, видео

Печатать
Просмотров: 69
Intro:
E ----------------------------------|
B ----------------------------------|
G ---------2------2----2-----2----2-|
D 2-4--2h4----2h4---2h4--2h4---2h4--|
A 0-0-------------------------------|
E-----------------------------------|

Verses:
E -------------------------------|
B -------------------------------|
G -xx-9-9-xx-9-9--xx-2-2-xx------|
D -xx-9-9-xx-9-9--xx-2-2-xx-4-5--|
A -xx-7-7-xx-7-7--xx-0-0-xx-0-0--|
E -------------------------------|

Bridge:
Bm                     G       Bm                      D
See my eyes of blocked emotion, see my tremble, see my fall
G                    D          G       D       A
Traumatics thick and fast, your faith in me can last
A
Besides I'm known to lay you, one and all
Добавлено: 19.09.2015
Другие материалы по этой песне:
  • Аккорды и текст

Страница создана 06.05.2012
http://primanota.ru/bowie-david/sweet-head-chords.htm
Привет, Гость.
Предлагаем пройти революционный курс по гитаре.
Подарок от PrimaNota.Ru, забирай!