PrimaNota.ru - самый крупный в мире бесплатный архив песенных текстов, аккордов, табулатур и нот


Bowie, David - Saviour Machine - аккорды и текст, видео

Регистрация Запомнить меня
Войти через:  Facebook Google Twitter Vk Yandex Mail.ru

Bowie, David - Saviour Machine - аккорды и текст, видео

Печатать
Просмотров: 146
Saviour Machine
Bowie, David
Saviour Machine - David Bowie - The Man Who Sold The World - 1970

(fade in)Bb  Am                G   Am               Bb       
Am         G
               
1st verse:
Am               F  
President Joe ...dream
              G
The world ... hand...
   Am
...scheme
                  E  E/F  E/G  Am
... Saviour Machine
                   F
They called... was law
              G     
.....stopped war
    Am
...adored it
      E
..its boredom
G             F#m
Please ... believe in me
Am          Bb
Please disagree with ...
G           F#m
Life ...too easy
       Am
Their plague ...
Bb             C   Bb
Pheasable    now
          C               Bb
... your war
                Am  D  Am  D  Am   D
I make of you all

Bridge:
 
E-------------------------------------|---------------------|
B-----------------------8---6~~~~-/x\-|---------------------|
G--7^(9)>7---5--4---------------------|-----4--5~~~~-/x\--7-|
D-------------------7~~---------------|-7-------------------|
A-------------------------------------|---------------------|
E-------------------------------------|---------------------|
             
e-------------------------------------|
B-------------------------------------|     
G--------7^(9)>7----4h5p4-------------|
D------------------------------7~~----|
A-------------------------------------|
E-------------------------------------|

Chorus:
Am         G
Don't ... stay
             F
Don't ... stay
               G
... logic says burn
    Am
...away
                   Bb
Your minds ... too green
                    F
...despise all I've seen
                G
... stake your life
                 Am   D   Am   D   Am   D
.... Saviour Machine

2nd solo
[Transcription here needed ;)]

Same chords for next bits, then the end goes something like:

Am  D  Am  D  Am  D  Am (which turns into the opening chords, which 
are):

Am  Bb  Am  G  Am  Bb  Am  G  Am (and so on, fade out)


Tricky chords:
E/F= 1-2-2-1-0-0
E/G= 3-2-2-1-0-0
Key:
^ ( )= bend up to number in brackets
>    = release slowly
h    =hammer-on
p    =pull-off
/    =slide up
\    =slide down	

Transcribed totally and completely by Alexander Torres

Any hints corrections or stuff, please e-mail me:
ziggy@aeiou.pt
     
Добавлено: 16.11.2013
Другие материалы по этой песне:
  • Аккорды и текст

Страница создана 24.02.2012
http://primanota.ru/bowie-david/saviour-machine-chords.htm
Привет, Гость.
Предлагаем пройти революционный курс по гитаре.
Подарок от PrimaNota.Ru, забирай!