PrimaNota.ru - самый крупный в мире бесплатный архив песенных текстов, аккордов, табулатур и нот


Bowerbirds - Bur Oak - таба, видео

Регистрация Запомнить меня
Войти через:  Facebook Google Twitter Vk Yandex Mail.ru

Bowerbirds - Bur Oak - таба, видео

Печатать
Просмотров: 158
                         BUR OAK - Bowerbirds


email: brandonmacgregor@live.ca
Tabbed by: Brandon MacGregor


(Verse, Verse, Chorus, Verse, Chorus)


Verse:

E|----------------------------------------------------------------|
B|----4----4-------2-----2----------------------------------------|
G|----0------0-----0-------0-----1----1--------1-----1------------|
D|-------------------------------0------0------0-------0----------|
A|--3----3-----3s1-----1------------------------------------------|
E|-----------------------------1----1-----1-1------1--------------|

E|-------------------------------------------------------------------|
B|------------------------------------4------4------3h4-----6--4---4-|
G|----5-----5-------4------4----------0--------0--------0--------0---|
D|----0-------0-----3--------3---------------------------------------|
A|---------------------------------3------3-------3-------3----------|
E|--4----4-----4s3------3--------------------------------------------|

E|----------------------------------------------------------------|
B|----6----6-------5-----5----------------------------------------|
G|----0------0-----0-------0-----1----1--------1-----1------------|
D|-------------------------------0------0------0-------0----------|
A|--6----6-----6s3-----3------------------------------------------|
E|-----------------------------1----1-----1-1------1--------------|

E|--------------------------------------------------------------------|
B|-------------------------------------4------4------3h4-----6--4---4-|
G|-----5-----5-------4------4----------0--------0--------0--------0---|
D|-----0-------0-----3--------3---------------------------------------|
A|----------------------------------3------3-------3-------3----------|
E|---4----4-----4s3------3--------------------------------------------|

E|-----------------------------------------------------------------| x2
B|----4----4-------------------------------------------------------|
G|----0------0-----5------5----------5------5----------5------5----|
D|-----------------5--------5--------5--------5--------5--------5--|
A|--3----3---------------------------------------------------------|
E|--------------4------4---------4-------4---------4-------4-------|

E|---------------------------------------------------------------|
B|----4----4-------3-----3--------3-----3---------3-------3------|
G|----0------0-----0-------0------1-------1-------1---------1----|
D|---------------------------------------------------------------|
A|--3----3-----3s1-----1-------1------1-----1-1-------1----------|
E|---------------------------------------------------------------|

E|------------------------------------------------------------------|
B|------------------------------------------------------------------|
G|----5-----5-------5------5----------5------5---------5-------5----|
D|----0-------0-----3--------3--------5--------5-------5---------5--|
A|------------------------------------------------------------------|
E|--4----4-----4-4------4--------4-4------4-------4-4------4-------4|

E|------------------------------------------------------------------|
B|------------------------------------------------------------------|
G|----5-----5-------5------5----------5------5---------5---------5~-|
D|----0-------0-----3--------3--------5--------5-------5------6-----|
A|------------------------------------------------------------------|
E|--6----6-----6-6------6----------6------6---------6------6--------|


Chorus:

E|-------------------4---4--4-------4------------8-----8---8---|
B|-----8----8--8-----4---4--4--4-------4---------9-----9---9---|
G|-----8----8--8-----5---5--5----5-------5-------10----10--10--|
D|-----8----8--8-----6---6--6------6-------------10----10--10--|
A|--6-----6-6--6-----6---6--6----------------8-------8---------|
E|-----------------4---4-------4-------------------------------|

E|-----6----6--6-----4---4--4-------4---------|     x4
B|-----6----6--6-----4---4--4--4-------4------|
G|-----7----7--7-----5---5--5----5-------5----|
D|-----8----8--8-----6---6--6------6----------|
A|-----8----8--8-----6---6--6-----------------|
E|--6----6--------4----4-------4--------------|

                            
E|------------------------------------------------------------------|
B|--------3------------3-------------3----------3-3---3-3---3-3---3-|
G|----0-----0-----0------0------0-------0-------1-1---1-1---1-1---1-|
D|------------------------------------------------------------------|
A|--3---3-------2----2-------1-----1-------1-1------1-----1-----1---|
E|------------------------------------------------------------------|




http://www.bowerbirds.org/


| /  slide up
| \  slide down
| h  hammer-on
| p  pull-off
| ~  vibrato
| +  harmonic
| x  Mute note
===============
Добавлено: 03.06.2012
Другие материалы по этой песне:
  • Аккорды и текст

Страница создана 03.06.2012
http://primanota.ru/bowerbirds/bur-oak-chords.htm
Привет, Гость.
Предлагаем пройти революционный курс по гитаре.
Подарок от PrimaNota.Ru, забирай!