PrimaNota.ru - самый крупный в мире бесплатный архив песенных текстов, аккордов, табулатур и нот


Bound To Fail - What Friends Are For - таба, видео

Регистрация Запомнить меня
Войти через:  Facebook Google Twitter Vk Yandex Mail.ru

Bound To Fail - What Friends Are For - таба, видео

Печатать
Просмотров: 148
-------------------------------------------------------------------------------
                             What Friends Are For - Bound To Fail
-------------------------------------------------------------------------------
Tabbed by:Chris Huntington
Email:

Tuning: Standard E

listen to the song for rhythm and timing  www.myspace.com/bound2fail

Intro

 Gtr. 1
 (let each chord ring)

e|---------------------------------------------------------------------------|
B|---------------------------------------------------------------------------|
G|----r----------------------------------------------------------------------|
D|-2--e--5--3-----2--10-5--3-------------------------------------------------|
A|-2--s--5--3-----2--10-5--3-------------------------------------------------|
E|-0--t--3--1-----0--8--3--1-------------------------------------------------|

  Gtr. 2
    
e|--8p0--7p0--5p0------------------------------------------------------------|
B|-----------------0--7p0--0--5p0--5h7p5--0----------------------------------|
G|--------------------------------------------x3-----------------------------|
D|---------------------------------------------------------------------------|
A|---------------------------------------------------------------------------|
E|---------------------------------------------------------------------------|

e|--12p0---------------12p0---------------12p0-------------------------------|
B|--------0--10h12p10--------0--10h12p10--------10p0-------------------------|
G|---------------------------------------------------------------------------|
D|---------------------------------------------------------------------------|
A|---------------------------------------------------------------------------|
E|---------------------------------------------------------------------------|

 Gtr. 1 Verse (strum)
e|---------------------------------------------------------------------------|
B|---------------------------------------------------------------------------|
G|---------------------------------------------------------------------------|
D|-2--10--5------------------------------------------------------------------|
A|-2--10--5----------------3-3-3--3-3-3--3-3-3--3-3-3--3-3-3--3-3------------|
E|-0--8---3----------------1-1-1--1-1-1--1-1-1--1-1-1--1-1-1--1-1------------|
 
 Gtr. 2 Verse (strum)                   
e|---------------------------------------------------------------------------|
B|---------------------------------------------------------------------------|
G|---------12----14----------------------------------------------------------|
D|---------x--/--x-----------------------------------------------------------|
A|-14--10--10----12--17---3-3-3--3-3-3--3-3-3--3-3-3--3-3-3--3-3-------------|
E|-12--8-------------15---1-1-1--1-1-1--1-1-1--1-1-1--1-1-1--1-1-------------|

  Gtr. 1 Chorus
e|---------------------------------------------------------------------------|
B|---------------------------------------------------------------------------|
G|---------------------------------------------------------------------------|
D|-9-9-9-9-9--13-13-13-13-13----5-5-5-5-5--5-5-5-5-5-------------------------|
A|-9-9-9-9-9--13-13-13-13-13-/--5-5-5-5-5--5-5-5-5-5-------------------------|
E|-7-7-7-7-7--11-11-11-11-11----3-3-3-3-3--3-3-3-3-3-------------------------|

  Gtr. 2 Chorus
e|-----------------------------------------3-3-3-3-3-------------------------|
B|-----------------------------------------3-3-3-3-3-------------------------|
G|-----------------------------------------0-0-0-0-0-------------------------|
D|-9-9-9-9-9--13-13-13-13-13----5-5-5-5-5--0-0-0-0-0-------------------------|
A|-9-9-9-9-9--13-13-13-13-13-/--5-5-5-5-5--x-x-x-x-x-------------------------|
E|-7-7-7-7-7--11-11-11-11-11----3-3-3-3-3--3-3-3-3-3-------------------------|


  Gtr. 2 Bridge
e|---------------------------------------------------------------------------|
B|---------------------------------------------------------------------------|
G|-----2-----------2---2-------2----------2---2------------------------------|
D|---o---0---0---0---0---0---0---0---0--0---0---0----------------------------|
A|-2-------2---2-----------2-------2---2-------------------------------------|
E|---------------------------------------------------------------------------|

e|---------------------------------------------------------------------------|
B|---------------------------------------------------------------------------|
G|-----4----------4---4--------4-----------4---4-----------------------------|
D|---2---2--2---2---2---2----2---2---2---2---2---2---------------------------|
A|-0-------0--0------------0-------0---0-------------------------------------|
E|---------------------------------------------------------------------------|

  Gtr. 1 Bridge
e|---------------------------------------------------------------------------|
B|---------------------------------------------------------------------------|
G|---------------------------------------------------------------------------|
D|---------------------------------------------------------------------------|
A|--0h2-2-2--0h2-2-2-2-2---0h2-2-2--0h2-2-2-2-2------------------------------|
E|---------------------------------------------------------------------------|

e|---------------------------------------------------------------------------|
B|-222222222222222222222222222222222222222222222-----------------------------|
G|---------------------------------------------------------------------------|
D|---------------------------------------------------------------------------|
A|---------------------------------------------------------------------------|
E|---------------------------------------------------------------------------|

 Gtr. 1 Breakdown (palm mute) (intro again)
e|---------------------------------------------------------------------------|
B|---------------------------------------------------------------------------|
G|---------------------------------------------------------------------------|
D|-222222-22-----------------------------------------------------------------|
A|-222222-22--101010101010-1010--555555--55--333333--33----------------------|
E|-000000-00--8-8-8-8-8-8--8-8---333333--33--111111--11----------------------|

 Gtr. 2 Breakdown
    
e|--8p0--7p0--5p0------------------------------------------------------------|
B|-----------------0--7p0--0--5p0--5h7p5--0----------------------------------|
G|--------------------------------------------x3-----------------------------|
D|---------------------------------------------------------------------------|
A|---------------------------------------------------------------------------|
E|---------------------------------------------------------------------------|

e|--12p0---------------12p0---------------12p0-------------------------------|
B|--------0--10h12p10--------0--10h12p10--------10p0-------------------------|
G|---------------------------------------------------------------------------|
D|---------------------------------------------------------------------------|
A|---------------------------------------------------------------------------|
E|---------------------------------------------------------------------------|


| /  slide up
| \  slide down
| h  hammer-on
| p  pull-off
| ~  vibrato
| +  harmonic
| x  Mute note
===============================================================================
Добавлено: 16.04.2012
Другие материалы по этой песне:
  • Аккорды и текст

Страница создана 16.04.2012
http://primanota.ru/bound-to-fail/what-friends-are-for-chords.htm
Привет, Гость.
Предлагаем пройти революционный курс по гитаре.
Подарок от PrimaNota.Ru, забирай!