PrimaNota.ru - самый крупный в мире бесплатный архив песенных текстов, аккордов, табулатур и нот


Bound To Fail - Points One And Zero - таба, видео

Регистрация Запомнить меня
Войти через:  Facebook Google Twitter Vk Yandex Mail.ru

Bound To Fail - Points One And Zero - таба, видео

Печатать
Просмотров: 143
----------------------------------------------------------------------------
Points One and Zero - Bound To Fail
-----------------------------------------------------------------------------
Tabbed by:MarkH85
Email:

Tuning: Dropped C


Intro: 0:00-0:17

Guitar 1

d|--------------------------------------|
A|--6~----------------------------------|
F|--------------------5~----------9~----|
C|--3~----------------------------------|
G|--------------------3~----------7~----|
C|--------------------------------------|

Guitar 2                                   X4

d|--------------------------------------|
A|--------------------------------------|
F|--7~-----------------9~----------5~---|
C|--------------------------------------|
G|--5~-----------------7~----------3~---|
C|--------------------------------------|

Intro/Verse: 0:17-0:45

Guitar 1

d|------------------------------------------------------|
A|------------------------------------------------------|
F|------------------------------------------------------|
C|------------------------------------------------------|
G|--0-0-0--5p0-7p0-8p0-7--------0-0-0--8p0-7p0-5p0-7----|
C|--0-0-0-----------------------0-0-0-------------------|

d|-------------------------------------3p0-1p0----------|
A|-------------------------------------------------1p0--|
F|---------5-5-5-5-4-4-4-4---------------------2p0------|
C|------------------------------------------------------|
G|--3-3-3-----------------------3-3-3-------------------|
C|--3-3-3-----------------------3-3-3-------------------|

d|------------------------------------------------------|
A|------------------------------------------------------|
F|------------------------------------------------------|
C|------------------------------------------------------|
G|--0-0-0--8-0-10-0-12-0-10-----0-0-0--12-0-10-0-8-0-10-|
C|--0-0-0-----------------------0-0-0-------------------|

d|-------------------------------------3-0-1-0----------|
A|-------------------------------------------------1-0--|
F|---------9-9-9-9-7-7-7-7---------------------2-0------|
C|------------------------------------------------------|
G|--3-3-3-----------------------3-3-3-------------------|
C|--3-3-3-----------------------3-3-3-------------------|

Guitar 2

d|------------------------------------------------------|
A|------------------------------------------------------|
F|------------------------------------------------------|
C|--0-0-0-0----------------------0-0-0-0----------------|
G|--0-0-0-0----------------------0-0-0-0----------------|
C|--0-0-0-0----------------------0-0-0-0----------------|
                                                           X2
d|------------------------------------------------------|
A|------------------------------------------------------|
F|------------------------------------------------------|
C|--3-3-3-3----------------------3-3-3-3~---------------|
G|--3-3-3-3----------------------3-3-3-3~---------------|
C|--3-3-3-3----------------------3-3-3-3~---------------|

Fill (ring out) 0:45-0:48

Guitar 1 and 2 

d|--------|
A|--------|
F|--------|
C|--0~----|
G|--0~----|
C|--0~----|

Chorus: 0:48-1:15

Guitar 1

d|--------------------------------------------------|
A|--------------------------------------------------|
F|--12-12-12-10-10-10-10-10-10-10-10-10-10-10-10-10-|
C|--------------------------------------------------|
G|--10-10-10-8--8--8--8--8--8--8--8--8--8--8--8--8--|
C|--------------------------------------------------|

d|--------------------------------------------------|
A|--------------------------------------------------|
F|--12-12-12-10-10-10-10-9-9-9-9-9-9-9-9-9----------|
C|--------------------------------------------------|
G|--10-10-10-8--8--8--8--7-7-7-7-7-7-7-7-7----------|
C|--------------------------------------------------|
                                                       X2
d|--------------------------------------------------|
A|--------------------------------------------------|
F|--12-12-12-10-10-10-10-10-10-10-10-10-10-10-10-10-|
C|--------------------------------------------------|
G|--10-10-10-8--8--8--8--8--8--8--8--8--8--8--8--8--|
C|--------------------------------------------------|

d|--------------------------------------------------|
A|--------------------------------------------------|
F|--12-12-12-12-12-12-12-14-14-14-14-14-14-14-14-14-|
C|--------------------------------------------------|
G|--10-10-10-10-10-10-10-12-12-12-12-12-12-12-12-12-|
C|--------------------------------------------------|

Guitar 2

d|--------------------------------------------------------------------|
A|--------------------------------------------------------------------|
F|--7-7-7-7-7-7-7-7-7-7-7-7-7-7-7-7-9-9-9-9-9-9-9-9-5-5-5-5-5-5-5-5---|  X4
C|--------------------------------------------------------------------|
G|--5-5-5-5-5-5-5-5-5-5-5-5-5-5-5-5-7-7-7-7-7-7-7-7-3-3-3-3-3-3-3-3---|
C|--------------------------------------------------------------------|

Bridge: 1:15-1:42

Guitar 1

d|--13h0---------------13h0----------------10-10-10-10-----------------------|
A|-----------------------------------------11-11-11-11-----------------------|
F|--10h0---------------10h0----------------12-12-12-12-----------------------|
C|---------------------------------------------------------------------------|
G|--------------------------------------------------------1h0----------------|
C|--------0--0--0-0-0--------0--0--0-0-0-----------------------0--0--0-0-0---|
                                                              
d|-----------------------------------|
A|-----------------------------------|
F|-----------------------------------|   X4
C|-----------------------------------|
G|--1h0-----------------1-1-1-1------|
C|-------0--0--0-0-0----1-1-1-1------|

Guitar 2

d|---------------------------------------------------------------------------|
A|---------------------------------------------------------------------------|
F|---------------------------------------------------------------------------|
C|--3h0---------------3h0-----------------7-7-7-7----3h0----------------------------------|
G|--1h0---------------1h0-----------------5-5-5-5----1h0---------------------------------|
C|-------0--0--0-0-0-------0--0--0-0-0--------------------0--0--0-0-0-----------------------|

d|-----------------------------------|
A|-----------------------------------|
F|-----------------------------------|   X4
C|--3h0------------------------------|
G|--1h0-----------------1-1-1-1------|
C|-------0--0--0-0-0----1-1-1-1------|

Breakdown: 1:42-1:55

Guitar 1 and 2

d|--------------------------------------------------------------------|
A|--------------------------------------------------------------------|
F|--------------------------------------------------------------------|   X2
C|------------------------------------------------------------+5+-----|
G|--000000000--00000--00000--------000000000--00000--00000------------|
C|--000000000--00000--00000--------000000000--00000--00000------------|
  PM

Breakdown: 1:55-2:22

Guitar 1

d|--------------------------------------------------|
A|--------------------------------------------------|
F|--12-12-12-10-10-10-10-10-10-10-10-10-10-10-10-10-|
C|--------------------------------------------------|
G|--10-10-10-8--8--8--8--8--8--8--8--8--8--8--8--8--|
C|--------------------------------------------------|

d|--------------------------------------------------|
A|--------------------------------------------------|
F|--12-12-12-10-10-10-10-9-9-9-9-9-9-9-9-9----------|
C|--------------------------------------------------|
G|--10-10-10-8--8--8--8--7-7-7-7-7-7-7-7-7----------|
C|--------------------------------------------------|
                                                       X2
d|--------------------------------------------------|
A|--------------------------------------------------|
F|--12-12-12-10-10-10-10-10-10-10-10-10-10-10-10-10-|
C|--------------------------------------------------|
G|--10-10-10-8--8--8--8--8--8--8--8--8--8--8--8--8--|
C|--------------------------------------------------|

d|--------------------------------------------------|
A|--------------------------------------------------|
F|--12-12-12-12-12-12-12-14-14-14-14-14-14-14-14-14-|
C|--------------------------------------------------|
G|--10-10-10-10-10-10-10-12-12-12-12-12-12-12-12-12-|
C|--------------------------------------------------|

Guitar 2

d|-------------------------------------------------------|
A|-------------------------------------------------------|
F|-------------------------------------------------------|  X4
C|-------------------------------------------------------|
G|--000000000--00000--00000--333333333--33333--77777~----|
C|--000000000--00000--00000--333333333--33333--77777~----|

Bridge/Metalpart: 2:22-2:57

Guitar 1

d|---------------------------------------------------------|
A|---------------------------------------------------------|
F|---------------------------------------------------------|
C|--5h7h5h0-----7-----5---------------8-----7-----5-----7--|
G|--------------8-----7-----8/10--10-----8-----7-----8-----|
C|-----------0-----0-----0---------------------------------|
            
d|---------------------------------------------------|
A|--11-11-11-11-11-11-11-11-10-10-10-10-8-8-8-8------|
F|---------------------------------------------------|
C|--8--8--8--8--8--8--8--8--7--7--7--7--5-5-5-5------|
G|---------------------------------------------------|
C|---------------------------------------------------|
                                                               X2
d|---------------------------------------------------------|
A|---------------------------------------------------------|
F|---------------------------------------------------------|
C|--5h7h5h0-----7-----5---------------8-----7-----5-----7--|
G|--------------8-----7-----8/10--10-----8-----7-----8-----|
C|-----------0-----0-----0---------------------------------|

d|---------------------------------------------------|
A|--11-11-11-11-11-11-11-11-10-10-10-10-13-13-13-13--|
F|---------------------------------------------------|
C|--8--8--8--8--8--8--8--8--7--7--7--7--10-10-10-10--|
G|---------------------------------------------------|
C|---------------------------------------------------|

Guitar 2

d|-------------------------------------|
A|-------------------------------------|
F|-------------------------------------|
C|-------------------------------------|
G|--0~----00----8-8-8-8-8-8-8-8-8-8-8--|
C|--0~----00----8-8-8-8-8-8-8-8-8-8-8--|

d|------------------------------------------------------------------------|
A|------------------------------------------------------------------------|
F|------------------------------------------------------------------------|
C|------------------------------------------------------------------------|   X3
G|--0000000-0--55-33-22-33--0000000-0--55-33-22-33--8-8-8-8-8-8-8-8-8-8---|  
C|--0000000-0--55-33-22-33--0000000-0--55-33-22-33--8-8-8-8-8-8-8-8-8-8---|

Bridge/Metalpart Variation: 2:57-3:18

Guitar 1

d|------------------------------------------------|
A|------------------------------------------------|
F|------------------------------------------------|
C|--------2--3--5--3--2----------2--3--5--3--2----|
G|--0----------------------0----------------------|
C|--0--0-------------------0--0-------------------|
                                                     
d|--------------------------------------------|
A|--------------------------------------------|
F|--------------------------------------------|
C|--2-----2-----2h3--3--2-----2-----2h3--3----|   X3
G|--1--1--1--1--1-------1--1--1--1--1---------|
C|--------------------------------------------|

d|-----------------------------------------|
A|-----------------------------------------|
F|-----------------------------------------|
C|--------2--3--5--3--2----------2--3--5~--|
G|--0----------------------0---------------|
C|--0--0-------------------0--0------------|

Guitar 2

d|-----------------------------------------------|
A|-----------------------------------------------|
F|-----------------------------------------------|
C|--0---------0-----------------------10-10-10---|   X3
G|--0--0-0----0--0-0----8-8-8-8-8-8-8------------|
C|--0--0-0----0--0-0----8-8-8-8-8-8-8------------|

d|----------------------|
A|----------------------|
F|----------------------|
C|--0---------0---------|
G|--0--0-0----0--0-0----|
C|--0--0-0----0--0-0----|

Chorus: 3:18-3:45

Guitar 1

d|--------------------------------------------------|
A|--------------------------------------------------|
F|--12-12-12-10-10-10-10-10-10-10-10-10-10-10-10-10-|
C|--------------------------------------------------|
G|--10-10-10-8--8--8--8--8--8--8--8--8--8--8--8--8--|
C|--------------------------------------------------|

d|--------------------------------------------------|
A|--------------------------------------------------|
F|--12-12-12-10-10-10-10-9-9-9-9-9-9-9-9-9----------|
C|--------------------------------------------------|
G|--10-10-10-8--8--8--8--7-7-7-7-7-7-7-7-7----------|
C|--------------------------------------------------|
                                                       X2
d|--------------------------------------------------|
A|--------------------------------------------------|
F|--12-12-12-10-10-10-10-10-10-10-10-10-10-10-10-10-|
C|--------------------------------------------------|
G|--10-10-10-8--8--8--8--8--8--8--8--8--8--8--8--8--|
C|--------------------------------------------------|

d|--------------------------------------------------|
A|--------------------------------------------------|
F|--12-12-12-12-12-12-12-14-14-14-14-14-14-14-14-14-|
C|--------------------------------------------------|
G|--10-10-10-10-10-10-10-12-12-12-12-12-12-12-12-12-|
C|--------------------------------------------------|

Guitar 2

d|--------------------------------------------------------------------|
A|--------------------------------------------------------------------|
F|--7-7-7-7-7-7-7-7-7-7-7-7-7-7-7-7-9-9-9-9-9-9-9-9-5-5-5-5-5-5-5-5---|  X4
C|--------------------------------------------------------------------|
G|--5-5-5-5-5-5-5-5-5-5-5-5-5-5-5-5-7-7-7-7-7-7-7-7-3-3-3-3-3-3-3-3---|
C|--------------------------------------------------------------------|

Outro: 3:45-4:42end

Guitar 1

d|---------------------------------------------------------|
A|---------------------------------------------------------|
F|---------------------------------------------------------|
C|-----2-----3-----5-----3-----2-----2h3h2-----------------|
G|---------------------------------------------5---3-------|
C|--0-----0-----0-----0-----0-----0---------0--------------|

d|---------------------------------------------------------|
A|---------------------------------------------------------|
F|---------------------------------------------------------|
C|-----3-----5-----3--3------3-----2-----3--3--------------|
G|-----2-----2-----2--2------1-----1-----1--1--------------|
C|--0-----0-----0---------0-----0-----0--------------------|   X8

Guitar 2

d|--------------------------|
A|--------------------------|
F|--------------------------|
C|------4~--3~------4~--3~--|  X2
G|--0~--2~--1~--0~--2~--1~--|
C|--0~----------0~----------|

d|--------------------------------------------------|
A|--------------------------------------------------|
F|--------------------------------------------------|
C|--7-7--7777--7--7--77777--4-4--4444--3-3--33333---|  X2
G|--5-5--5555--5--5--55555--2-2--2222--1-1--11111---|
C|--------------------------------------------------|

d|----------------------------------------------------------------|
A|----------------------------------------------------------------|
F|----------------------------------------------------------------|
C|--------------------------------------4-4--44444-------33333----|   X4
G|--00000000-0-0-0-0--00000000-0-0-0-0--2-2--22222--1-1--11111----|
C|--00000000-0-0-0-0--00000000-0-0-0-0----------------------------|






************************************

| /   slide up
| \   slide down
| h   hammer-on
| p   pull-off
| ~   vibrato
| +   harmonic
| x   Mute note
| b   Bend
| pb  Pre-bend
| br  Bend release
| pbr Pre-bend release
| brb Bend release bend

************************************
Добавлено: 25.06.2012
Другие материалы по этой песне:

Страница создана 21.06.2012
http://primanota.ru/bound-to-fail/points-one-and-zero-chords.htm
Привет, Гость.
Предлагаем пройти революционный курс по гитаре.
Подарок от PrimaNota.Ru, забирай!