PrimaNota.ru - самый крупный в мире бесплатный архив песенных текстов, аккордов, табулатур и нот


Bound To Fail - Own Your Grave - таба, видео

Регистрация Запомнить меня
Войти через:  Facebook Google Twitter Vk Yandex Mail.ru

Bound To Fail - Own Your Grave - таба, видео

Печатать
Просмотров: 186
Уроки эстрадного вокала в Санкт-Петербурге
                             OWN YOUR GRAVE by Bound To Fail

Tabbed by:MarkH85
Email:

Tuning: drop C

Intro: 0:00-0:02

Guitar 1 

d|-----------------------------------------------------------------|
A|-----------------10-----------------------------10---------------|
F|------9--10--12------12--10--9-------9--10--12------12--10--9----|
C|--12-----------------------------12------------------------------|
G|-----------------------------------------------------------------|
C|-----------------------------------------------------------------|

Breakdown: 0:02-0:27

Guitar 1 (repeat 2X)

d|-----------------------------------------------------------------|
A|-----------------10-----------------------------10---------------|
F|------9--10--12------12--10--9-------9--10--12------12--10--9----|
C|--12-----------------------------12------------------------------|
G|-----------------------------------------------------------------|
C|-----------------------------------------------------------------|

d|-----------------------------------------------------------------|
A|-----------------10-----------------------------10---------------|
F|------9--10--12------12--10--9-------9--10--12------12--10--9----|
C|--10-----------------------------10------------------------------|
G|-----------------------------------------------------------------|
C|-----------------------------------------------------------------|

d|-----------------------------------------------------------------|
A|-----------------------------------------------------------------|
F|-----9--10--12--10--9--9p10--9-------9--10--12--10--9--9p10--9---|
C|--8------------------------------8-------------------------------|
G|-----------------------------------------------------------------|
C|-----------------------------------------------------------------|

d|-----------------------------------------------------------------|
A|-----------------10----------------------------------------------|
F|------9--10--12------12--10--9--9p10--9--12--10--9p10--9------9--|
C|--12------------------------------------------------------12-----|   X2
G|-----------------------------------------------------------------|
C|-----------------------------------------------------------------|

Guitar 2

d|-----------------------------------------------------------------|
A|-----------------------------------------------------------------|
F|-----------------------------------------------------------------|
C|-----------------------------------------------------------------|   X4
G|--00000--0--0--00000--00000000--00000--0--0--00000--00000--------|
C|--00000--0--0--00000--00000000--00000--0--0--00000--00000--------|

Verse/Metal part: 0:27-0:58

Guitar 1 

d|-------------------------------------------|
A|-------------------------------------------|
F|-------------------------------------------|
C|-------------------------------------------|
G|--5p8p5-4p7p4--0---0--0--0--00----0000000--|
C|---------------0---0--0--0--0000--0000000--|
                                                                           
d|-------------------------------------------|
A|-------------------------------------------|
F|-------------------------------------------|
C|-------------------------------------------|
G|--5p8p5-4p7p4--0---0--0--0---00----4444----|
C|---------------0---0--0--0---0000--4444----|
    
d|-------------------------------------------|
A|-------------------------------------------|
F|-------------------------------------------|
C|--3p6p3-2p5p2--0---0--0--0--00---00000000--|
G|---------------1---1--1--1--1111-11111111--|
C|-------------------------------------------|

d|-------------------------------------------|
A|-------------------------------------------|
F|-------------------------------------------|
C|--3p6p3-2p5p2--0---0--0--0---00----5555----|  X2
G|---------------1---1--1--1---1111--3333----|
C|-------------------------------------------|

Guitar 2

d|----------------------------------------------|
A|----------------------------------------------|
F|----------------------------------------------|
C|----------------------------------------------|
G|--2p5p2-1p4p1--0---0--0--0--00----00000000----|
C|---------------0---0--0--0--0000--00000000----|
                                                                              
d|-------------------------------------------|
A|-------------------------------------------|
F|-------------------------------------------|
C|-------------------------------------------|
G|--2p5p2-1p4p1--0---0--0--0---00----4444----|
C|---------------0---0--0--0---0000--4444----|

d|----------------------------------------------|
A|----------------------------------------------|
F|----------------------------------------------|
C|----------------------------------------------|
G|--8p11p8-7p10p7--1--1--1--1-1111--11111111----|
C|-----------------0--0--0--0-0000--00000000----|

d|------------------------------------------------|
A|------------------------------------------------|
F|------------------------------------------------|
C|------------------------------------------------|  X2
G|--8p11p8-7p10p7--1--1--1--1--1111--10-10-10-10--|
C|-----------------0--0--0--0--0000--10-10-10-10--|

Bridge: 0:58-1:23

Guitar 1

d|---------------------------------------------------------------------------|
A|---------------------------------------------------------------------------|
F|---------------------------------------------------------------------------|
C|---------------------------------------------------------------------------|
G|--5p8p5-5p8p5-5p8p5-5p8p5-1p4p1-1p4p1-1p4p1-1p4p1-5p8p5-5p8p5-5p8p5-5p8p5--|
C|---------------------------------------------------------------------------|

d|----------------------------|
A|----------------------------|
F|----------------------------|
C|----------------------------|  X2
G|--1p4p1-1p4p1---------------|
C|--------------1p4p1-1p4p1---|

d|-------------------------------------------------------------------|
A|-------------------------------------------------------------------|
F|-------------------------------------------------------------------|
C|--12p15p12-12p15p12-12p15p12-12p15p12-8p11p8-8p11p8-8p11p8-8p11p8--|
G|-------------------------------------------------------------------|
C|-------------------------------------------------------------------|

d|-----------------------------------------------------------------------|
A|-----------------------------------------------------------------------|
F|-----------------------------------------------------------------------|
C|--12p15p12-12p15p12-12p15p12-12p15p12-8p11p8-8p11p8-15p18p15-15p18p15--|  X2
G|-----------------------------------------------------------------------|
C|-----------------------------------------------------------------------| 

Guitar 2

d|-----------------------------------------|
A|-----------------------------------------|
F|--7~--7~--33333333--7-7-7-7--3333--------|
C|-----------------------------------------|  X4
G|--5~--5~--11111111--5-5-5-5--1111-1111---|
C|----------------------------------1111---|

Bridge/Fill: 1:23-1:35

Guitar 1

d|-------------------------------------------|
A|-------------------------------------------|
F|--12~--14~--15~---8~--8~--15~--14~--12~----|
C|-------------------------------------------|
G|--10~--12~--13~---6~--6~--13~--12~--10~----|
C|-------------------------------------------|

d|-------------------------------------------|
A|-------------------------------------------|
F|--12~--14~--15~--19~--8~---8~--15~--14~--12|
C|-------------------------------------------|
G|--10~--12~--13~--17~--6~---6~--13~--12~--10|
C|-------------------------------------------|

Guitar 2

d|-----------------------------------|
A|-----------------------------------|
F|--7~--3~---------------------------|
C|----------1~-----0~---8~--7~-------|   X2
G|--5~--1~--1~-----0~---8~--7~--5----|
C|----------1~-----0~---8~--7~--5----|

Breakdown: 1:35-2:00

Guitar 1 (tremelo)

d|-------------------------------------------------------------------------|
A|-------------------------------------------------------------------------|
F|-------------------------------------------------------------------------|
C|--------------------88888888-77777777-12121212-10101010-8888-10101010----|
G|--55555555-88888888------------------------------------------------------|
C|-------------------------------------------------------------------------|

d|-----------------------|
A|-----------------------|
F|-----------------------|
C|--88888888-77777777----|  X2
G|-----------------------|
C|-----------------------|

d|-------------------------------------------------------|
A|-------------------------------------------------------|
F|-------------------------------------------------------|
C|--------------------------12---------------------------|   X4
G|--------13-12-13p15p13-12----15-13-15-13p12-13p12------|
C|--12-15------------------------------------------------|

Guitar 2

d|---------------------------------------|
A|---------------------------------------|
F|---------------------------------------|
C|---------------------------------------|  X7
G|--0-1-4-1-00000000--0-1-4-1-0000-000---|
C|--0-1-4-1-00000000--0-1-4-1-0000-000---|
  pm. . . . ........  . . . . .... ...

d|-----------------------------|
A|-----------------------------|
F|-----------------------------|
C|-----------------------------|  X1
G|--0-1-4-1-00000000--4~--3~---|
C|--0-1-4-1-00000000--4~--3~---|
  pm. . . . ........

Breakdown: 2:00-2:24

Guitar 1 (repeat 2X)

d|-----------------------------------------------------------------|
A|-----------------10-----------------------------10---------------|
F|------9--10--12------12--10--9-------9--10--12------12--10--9----|
C|--12-----------------------------12------------------------------|
G|-----------------------------------------------------------------|
C|-----------------------------------------------------------------|

d|-----------------------------------------------------------------|
A|-----------------10-----------------------------10---------------|
F|------9--10--12------12--10--9-------9--10--12------12--10--9----|
C|--10-----------------------------10------------------------------|
G|-----------------------------------------------------------------|
C|-----------------------------------------------------------------|

d|-----------------------------------------------------------------|
A|-----------------------------------------------------------------|
F|-----9--10--12--10--9--9p10--9-------9--10--12--10--9--9p10--9---|
C|--8------------------------------8-------------------------------|
G|-----------------------------------------------------------------|
C|-----------------------------------------------------------------|

d|-----------------------------------------------------------------|
A|-----------------10----------------------------------------------|
F|------9--10--12------12--10--9--9p10--9--12--10--9p10--9------9--|
C|--12------------------------------------------------------12-----|   X2
G|-----------------------------------------------------------------|
C|-----------------------------------------------------------------|

Guitar 2

d|-----------------------------------------------------------------|
A|-----------------------------------------------------------------|
F|-----------------------------------------------------------------|
C|-----------------------------------------------------------------|   X4
G|--00000--0--0--00000--00000000--00000--0--0--00000--00000--------|
C|--00000--0--0--00000--00000000--00000--0--0--00000--00000--------|
  pm.....  .  .  .....  ........  .....  .  .  .....  .....

Bridge 2/Metal part 2: 2:24-2:51

Guitar 1

d|---------------------------------------------------------------------------|
A|---------------------------------------------------------------------------|
F|---------------------------------------------------------------------------|
C|--12~--------------------------------------------3-3-3-3-3--------3-3-3-3-3|
G|---------0----5---8---4---7---5---5p8p5----0--0--4-4-4-4-4--0--0--4-4-4-4-4|
C|---------0--0---0---0---0---0---0-------0--0--0-------------0--0-----------|

d|--------------------------------------------------------------------|
A|--------------------------------------------------------------------|
F|--------------------------------------------------------------------|
C|------------------------------------------3-3-3-3-3--------3-3-3-3-3|  X2
G|--0----5---8---4---7---5---5p8p5----0--0--4-4-4-4-4--0--0--4-4-4-4-4|
C|--0--0---0---0---0---0---0-------0--0--0-------------0--0-----------|

d|--------------------------------------------------------------------|
A|--------------------------------------------------------------------|
F|--------------------------------------------------------------------|
C|------------------------------------------3-3-3-3-3--------3-3-3-3-3|
G|--0----5---8---4---7---5---5p8p5----0--0--4-4-4-4-4--0--0--4-4-4-4-4|
C|--0--0---0---0---0---0---0-------0--0--0-------------0--0-----------|

d|----------------------------------|
A|----------------------------------|
F|----------------------------------|
C|--------3-3-3-3-3--------3-3-3-3-3|
G|--0--0--4-4-4-4-4--0--0--4-4-4-4-4|
C|--0--0-------------0--0-----------|

Guitar 2

d|---------------------|
A|---------------------|
F|---------------------|
C|---------------------|
G|--0~----0-0-0-0-0000-|
C|--0~----0-0-0-0-0000-|
        pm. . . . .... 

d|-----------------------------------------------|
A|-----------------------------------------------|
F|-----------------------------------------------|
C|-----------------------------------------------|  X3
G|--0-000-8888-5555-------0---44444-0---44444----|
C|--0-000-8888-5555-5p8p5-0-0-44444-0-0-44444----|
  pm  ... .... ....

d|---------------------------------------------------------------------|
A|---------------------------------------------------------------------|
F|---------------------------------------------------------------------|
C|---------------------------------------------------------------------|  
G|--0-000-8888-5555-------0---44444-0---44444-0---44444-0---44444-0----|
C|--0-000-8888-5555-5p8p5-0-0-44444-0-0-44444-0---44444-0---44444-0----|
  pm  ... .... ....

Outro/Breakdown: 2:51-3:23end

Guitar 1 

d|----------13--------------13--------------13--------------13------|
A|------15------15------15------15------15------15------15------15--|
F|--14--------------14--------------14--------------14--------------|
C|------------------------------------------------------------------|
G|------------------------------------------------------------------|
C|------------------------------------------------------------------|

d|----------12--------------12--------------12--------------12------|
A|------15------15------15------15------15------15------15------15--|
F|--14--------------14--------------14--------------14--------------|
C|------------------------------------------------------------------|
G|------------------------------------------------------------------|
C|------------------------------------------------------------------|

d|----------13--------------13--------------13--------------13------|
A|------15------15------15------15------15------15------15------15--|
F|--14--------------14--------------14--------------14--------------|
C|------------------------------------------------------------------|
G|------------------------------------------------------------------|
C|------------------------------------------------------------------|

d|----------12--------------12--------------12--------------12------|
A|------15------15------15------15------14------14------14------14--|
F|--14--------------14--------------14--------------14--------------|
C|------------------------------------------------------------------|  X2
G|------------------------------------------------------------------|
C|------------------------------------------------------------------|

d|------------------|
A|------------------|
F|------------------|
C|------------------|  
G|--00--0000000000--|
C|--00--0000000000--|
  pm..  ..........

Guitar 2

d|------------------------|
A|------------------------|
F|------------------------|
C|------------------------|  X9
G|--00--0000000000-0-0-0--|
C|--00--0000000000-0-0-0--|
  pm..  .......... . . .

d|------------------|
A|------------------|
F|------------------|
C|------------------|  
G|--00--0000000000--|
C|--00--0000000000--|
  pm..  ..........



************************************

| /   slide up
| \   slide down
| h   hammer-on
| p   pull-off
| ~   vibrato
| +   harmonic
| x   Mute note
| b   Bend
| pb  Pre-bend
| br  Bend release
| pbr Pre-bend release
| brb Bend release bend

************************************
Добавлено: 19.05.2012
Вам также может быть интересно:
Другие материалы по этой песне:
  • Аккорды и текст

Страница создана 19.05.2012
http://primanota.ru/bound-to-fail/own-your-grave-chords.htm
Привет, Гость.
Предлагаем пройти революционный курс по гитаре.
Подарок от PrimaNota.Ru, забирай!